  0
SECTION
  2
HEADER
  9
$ACADVER
  1
AC1015
  9
$ACADMAINTVER
 70
     6
  9
$DWGCODEPAGE
  3
ANSI_1254
  9
$INSBASE
 10
0.0
 20
0.0
 30
0.0
  9
$EXTMIN
 10
0.0
 20
0.0
 30
0.0
  9
$EXTMAX
 10
279.4
 20
215.9
 30
0.0
  9
$LIMMIN
 10
0.0
 20
0.0
  9
$LIMMAX
 10
279.4
 20
215.9
  9
$ORTHOMODE
 70
     0
  9
$REGENMODE
 70
     1
  9
$FILLMODE
 70
     1
  9
$QTEXTMODE
 70
     0
  9
$MIRRTEXT
 70
     1
  9
$LTSCALE
 40
1.0
  9
$ATTMODE
 70
     1
  9
$TEXTSIZE
 40
3.5
  9
$TRACEWID
 40
1.0
  9
$TEXTSTYLE
  7
Standard
  9
$CLAYER
  8
0
  9
$CELTYPE
  6
ByLayer
  9
$CECOLOR
 62
   256
  9
$CELTSCALE
 40
1.0
  9
$DISPSILH
 70
     0
  9
$DIMSCALE
 40
1.0
  9
$DIMASZ
 40
3.5
  9
$DIMEXO
 40
1.0
  9
$DIMDLI
 40
3.75
  9
$DIMRND
 40
0.0
  9
$DIMDLE
 40
0.0
  9
$DIMEXE
 40
1.0
  9
$DIMTP
 40
0.0
  9
$DIMTM
 40
0.0
  9
$DIMTXT
 40
3.5
  9
$DIMCEN
 40
2.5
  9
$DIMTSZ
 40
0.0
  9
$DIMTOL
 70
     0
  9
$DIMLIM
 70
     0
  9
$DIMTIH
 70
     1
  9
$DIMTOH
 70
     1
  9
$DIMSE1
 70
     0
  9
$DIMSE2
 70
     0
  9
$DIMTAD
 70
     1
  9
$DIMZIN
 70
     0
  9
$DIMBLK
  1

  9
$DIMASO
 70
     1
  9
$DIMSHO
 70
     1
  9
$DIMPOST
  1

  9
$DIMAPOST
  1

  9
$DIMALT
 70
     0
  9
$DIMALTD
 70
     3
  9
$DIMALTF
 40
0.0393700787
  9
$DIMLFAC
 40
1.0
  9
$DIMTOFL
 70
     1
  9
$DIMTVP
 40
0.0
  9
$DIMTIX
 70
     0
  9
$DIMSOXD
 70
     0
  9
$DIMSAH
 70
     0
  9
$DIMBLK1
  1

  9
$DIMBLK2
  1

  9
$DIMSTYLE
  2
ISO-25
  9
$DIMCLRD
 70
     0
  9
$DIMCLRE
 70
     0
  9
$DIMCLRT
 70
     0
  9
$DIMTFAC
 40
1.0
  9
$DIMGAP
 40
1.524
  9
$DIMJUST
 70
     0
  9
$DIMSD1
 70
     0
  9
$DIMSD2
 70
     0
  9
$DIMTOLJ
 70
     0
  9
$DIMTZIN
 70
     0
  9
$DIMALTZ
 70
     0
  9
$DIMALTTZ
 70
     0
  9
$DIMUPT
 70
     0
  9
$DIMDEC
 70
     2
  9
$DIMTDEC
 70
     2
  9
$DIMALTU
 70
     2
  9
$DIMALTTD
 70
     3
  9
$DIMTXSTY
  7
Standard
  9
$DIMAUNIT
 70
     0
  9
$DIMADEC
 70
     2
  9
$DIMALTRND
 40
0.0
  9
$DIMAZIN
 70
     0
  9
$DIMDSEP
 70
    44
  9
$DIMATFIT
 70
     3
  9
$DIMFRAC
 70
     0
  9
$DIMLDRBLK
  1

  9
$DIMLUNIT
 70
     2
  9
$DIMLWD
 70
    -2
  9
$DIMLWE
 70
    -2
  9
$DIMTMOVE
 70
     0
  9
$LUNITS
 70
     2
  9
$LUPREC
 70
     2
  9
$SKETCHINC
 40
1.0
  9
$FILLETRAD
 40
10.0
  9
$AUNITS
 70
     0
  9
$AUPREC
 70
     2
  9
$MENU
  1
.
  9
$ELEVATION
 40
0.0
  9
$PELEVATION
 40
0.0
  9
$THICKNESS
 40
0.0
  9
$LIMCHECK
 70
     0
  9
$CHAMFERA
 40
0.0
  9
$CHAMFERB
 40
0.0
  9
$CHAMFERC
 40
0.0
  9
$CHAMFERD
 40
0.0
  9
$SKPOLY
 70
     0
  9
$TDCREATE
 40
2459741.592533819
  9
$TDUCREATE
 40
2459741.467533819
  9
$TDUPDATE
 40
2459741.592536134
  9
$TDUUPDATE
 40
2459741.467536134
  9
$TDINDWG
 40
0.0000000116
  9
$TDUSRTIMER
 40
0.0000000116
  9
$USRTIMER
 70
     1
  9
$ANGBASE
 50
0.0
  9
$ANGDIR
 70
     0
  9
$PDMODE
 70
     0
  9
$PDSIZE
 40
-1.0
  9
$PLINEWID
 40
0.0
  9
$SPLFRAME
 70
     0
  9
$SPLINETYPE
 70
     6
  9
$SPLINESEGS
 70
     8
  9
$HANDSEED
  5
1BC
  9
$SURFTAB1
 70
     6
  9
$SURFTAB2
 70
     6
  9
$SURFTYPE
 70
     6
  9
$SURFU
 70
     6
  9
$SURFV
 70
     6
  9
$UCSBASE
  2

  9
$UCSNAME
  2

  9
$UCSORG
 10
0.0
 20
0.0
 30
0.0
  9
$UCSXDIR
 10
1.0
 20
0.0
 30
0.0
  9
$UCSYDIR
 10
0.0
 20
1.0
 30
0.0
  9
$UCSORTHOREF
  2

  9
$UCSORTHOVIEW
 70
     0
  9
$UCSORGTOP
 10
0.0
 20
0.0
 30
0.0
  9
$UCSORGBOTTOM
 10
0.0
 20
0.0
 30
0.0
  9
$UCSORGLEFT
 10
0.0
 20
0.0
 30
0.0
  9
$UCSORGRIGHT
 10
0.0
 20
0.0
 30
0.0
  9
$UCSORGFRONT
 10
0.0
 20
0.0
 30
0.0
  9
$UCSORGBACK
 10
0.0
 20
0.0
 30
0.0
  9
$PUCSBASE
  2

  9
$PUCSNAME
  2

  9
$PUCSORG
 10
0.0
 20
0.0
 30
0.0
  9
$PUCSXDIR
 10
1.0
 20
0.0
 30
0.0
  9
$PUCSYDIR
 10
0.0
 20
1.0
 30
0.0
  9
$PUCSORTHOREF
  2

  9
$PUCSORTHOVIEW
 70
     0
  9
$PUCSORGTOP
 10
0.0
 20
0.0
 30
0.0
  9
$PUCSORGBOTTOM
 10
0.0
 20
0.0
 30
0.0
  9
$PUCSORGLEFT
 10
0.0
 20
0.0
 30
0.0
  9
$PUCSORGRIGHT
 10
0.0
 20
0.0
 30
0.0
  9
$PUCSORGFRONT
 10
0.0
 20
0.0
 30
0.0
  9
$PUCSORGBACK
 10
0.0
 20
0.0
 30
0.0
  9
$USERI1
 70
     0
  9
$USERI2
 70
     0
  9
$USERI3
 70
     0
  9
$USERI4
 70
     0
  9
$USERI5
 70
     0
  9
$USERR1
 40
0.0
  9
$USERR2
 40
0.0
  9
$USERR3
 40
0.0
  9
$USERR4
 40
0.0
  9
$USERR5
 40
0.0
  9
$WORLDVIEW
 70
     1
  9
$SHADEDGE
 70
     3
  9
$SHADEDIF
 70
    70
  9
$TILEMODE
 70
     1
  9
$MAXACTVP
 70
    64
  9
$PINSBASE
 10
0.0
 20
0.0
 30
0.0
  9
$PLIMCHECK
 70
     0
  9
$PEXTMIN
 10
1.0000000000E+20
 20
1.0000000000E+20
 30
1.0000000000E+20
  9
$PEXTMAX
 10
-1.0000000000E+20
 20
-1.0000000000E+20
 30
-1.0000000000E+20
  9
$PLIMMIN
 10
0.0
 20
0.0
  9
$PLIMMAX
 10
420.0
 20
297.0
  9
$UNITMODE
 70
     0
  9
$VISRETAIN
 70
     1
  9
$PLINEGEN
 70
     0
  9
$PSLTSCALE
 70
     1
  9
$TREEDEPTH
 70
  3020
  9
$CMLSTYLE
  2
Standard
  9
$CMLJUST
 70
     0
  9
$CMLSCALE
 40
20.0
  9
$PROXYGRAPHICS
 70
     1
  9
$MEASUREMENT
 70
     1
  9
$CELWEIGHT
370
    -1
  9
$ENDCAPS
280
     0
  9
$JOINSTYLE
280
     0
  9
$LWDISPLAY
290
     1
  9
$INSUNITS
 70
     4
  9
$HYPERLINKBASE
  1

  9
$STYLESHEET
  1

  9
$XEDIT
290
     1
  9
$CEPSNTYPE
380
     0
  9
$PSTYLEMODE
290
     1
  9
$FINGERPRINTGUID
  2
{0b8a7321-8802-48af-b433-a81f51f02a68}
  9
$VERSIONGUID
  2
{FAEB1C32-E019-11D5-929B-00C0DF256EC4}
  9
$EXTNAMES
290
     1
  9
$PSVPSCALE
 40
0.0
  9
$OLESTARTUP
290
     0
  0
ENDSEC
  0
SECTION
  2
CLASSES
  0
CLASS
  1
ACDBDICTIONARYWDFLT
  2
AcDbDictionaryWithDefault
  3
ObjectDBX Classes
 90
        0
280
     0
281
     0
  0
CLASS
  1
VISUALSTYLE
  2
AcDbVisualStyle
  3
ObjectDBX Classes
 90
     4095
280
     0
281
     0
  0
CLASS
  1
MATERIAL
  2
AcDbMaterial
  3
ObjectDBX Classes
 90
     1153
280
     0
281
     0
  0
CLASS
  1
SCALE
  2
AcDbScale
  3
ObjectDBX Classes
 90
     1153
280
     0
281
     0
  0
CLASS
  1
TABLESTYLE
  2
AcDbTableStyle
  3
ObjectDBX Classes
 90
     4095
280
     0
281
     0
  0
CLASS
  1
MLEADERSTYLE
  2
AcDbMLeaderStyle
  3
ACDB_MLEADERSTYLE_CLASS
 90
     4095
280
     0
281
     0
  0
CLASS
  1
SUN
  2
AcDbSun
  3
SCENEOE
 90
     1153
280
     0
281
     0
  0
CLASS
  1
ACDBPLACEHOLDER
  2
AcDbPlaceHolder
  3
ObjectDBX Classes
 90
        0
280
     0
281
     0
  0
CLASS
  1
LAYOUT
  2
AcDbLayout
  3
ObjectDBX Classes
 90
        0
280
     0
281
     0
  0
ENDSEC
  0
SECTION
  2
TABLES
  0
TABLE
  2
VPORT
  5
8
330
0
100
AcDbSymbolTable
 70
     1
  0
VPORT
  5
29
330
8
100
AcDbSymbolTableRecord
100
AcDbViewportTableRecord
  2
*Active
 70
     0
 10
0.0
 20
0.0
 11
1.0
 21
1.0
 12
139.7
 22
107.95
 13
0.0
 23
0.0
 14
10.0
 24
10.0
 15
10.0
 25
10.0
 16
0.0
 26
0.0
 36
1.0
 17
0.0
 27
0.0
 37
0.0
 40
215.9
 41
1.2941176471
 42
50.0
 43
0.0
 44
0.0
 50
0.0
 51
0.0
 71
     0
 72
  2000
 73
     1
 74
     3
 75
     0
 76
     0
 77
     0
 78
     0
281
     0
 65
     1
110
0.0
120
0.0
130
0.0
111
1.0
121
0.0
131
0.0
112
0.0
122
1.0
132
0.0
 79
     0
146
0.0
  0
ENDTAB
  0
TABLE
  2
LTYPE
  5
5
330
0
100
AcDbSymbolTable
 70
     6
  0
LTYPE
  5
14
330
5
100
AcDbSymbolTableRecord
100
AcDbLinetypeTableRecord
  2
ByBlock
 70
     0
  3

 72
    65
 73
     0
 40
0.0
  0
LTYPE
  5
15
330
5
100
AcDbSymbolTableRecord
100
AcDbLinetypeTableRecord
  2
ByLayer
 70
     0
  3

 72
    65
 73
     0
 40
0.0
  0
LTYPE
  5
16
330
5
100
AcDbSymbolTableRecord
100
AcDbLinetypeTableRecord
  2
Continuous
 70
     0
  3
Solid line
 72
    65
 73
     0
 40
0.0
  0
LTYPE
  5
6E
330
5
100
AcDbSymbolTableRecord
100
AcDbLinetypeTableRecord
  2
HIDDEN
 70
     0
  3
Hidden __ __ __ __ __ __ __ __ __ __ __ __ __ __
 72
    65
 73
     2
 40
1.905
 49
1.27
 74
     0
 49
-0.635
 74
     0
  0
LTYPE
  5
6F
330
5
100
AcDbSymbolTableRecord
100
AcDbLinetypeTableRecord
  2
PHANTOM
 70
     0
  3
Phantom ______  __  __  ______  __  __  ______
 72
    65
 73
     6
 40
12.7
 49
6.35
 74
     0
 49
-1.27
 74
     0
 49
1.27
 74
     0
 49
-1.27
 74
     0
 49
1.27
 74
     0
 49
-1.27
 74
     0
  0
LTYPE
  5
70
330
5
100
AcDbSymbolTableRecord
100
AcDbLinetypeTableRecord
  2
CENTER
 70
     0
  3
Center ____ _ ____ _ ____ _ ____ _ ____ _ ____
 72
    65
 73
     4
 40
10.16
 49
6.35
 74
     0
 49
-1.27
 74
     0
 49
1.27
 74
     0
 49
-1.27
 74
     0
  0
LTYPE
  5
71
330
5
100
AcDbSymbolTableRecord
100
AcDbLinetypeTableRecord
  2
CENTERX2
 70
     0
  3
Center (2x) ________  __  ________  __  _____
 72
    65
 73
     4
 40
20.32
 49
12.7
 74
     0
 49
-2.54
 74
     0
 49
2.54
 74
     0
 49
-2.54
 74
     0
  0
LTYPE
  5
72
330
5
100
AcDbSymbolTableRecord
100
AcDbLinetypeTableRecord
  2
DOT2
 70
     0
  3
Dot (.5x) ........................................
 72
    65
 73
     2
 40
0.635
 49
0.0
 74
     0
 49
-0.635
 74
     0
  0
ENDTAB
  0
TABLE
  2
LAYER
  5
2
330
0
100
AcDbSymbolTable
 70
    17
  0
LAYER
  5
10
330
2
100
AcDbSymbolTableRecord
100
AcDbLayerTableRecord
  2
0
 70
     0
 62
     7
  6
Continuous
370
    -3
390
F
  0
LAYER
  5
73
330
2
100
AcDbSymbolTableRecord
100
AcDbLayerTableRecord
  2
FORMAT
 70
     0
 62
     7
  6
Continuous
370
    -3
390
F
  0
LAYER
  5
74
330
2
100
AcDbSymbolTableRecord
100
AcDbLayerTableRecord
  2
YARDIMCI_GEOMETRI
 70
     0
 62
    -6
  6
Continuous
290
     0
370
    -3
390
F
  0
LAYER
  5
75
330
2
100
AcDbSymbolTableRecord
100
AcDbLayerTableRecord
  2
SAYFA_CERCEVESI
 70
     0
 62
     7
  6
Continuous
370
    25
390
F
  0
LAYER
  5
76
330
2
100
AcDbSymbolTableRecord
100
AcDbLayerTableRecord
  2
ANTET
 70
     0
 62
     7
  6
Continuous
370
    -3
390
F
  0
LAYER
  5
77
330
2
100
AcDbSymbolTableRecord
100
AcDbLayerTableRecord
  2
OLCU
 70
     0
 62
   150
  6
Continuous
370
    -3
390
F
  0
LAYER
  5
78
330
2
100
AcDbSymbolTableRecord
100
AcDbLayerTableRecord
  2
METIN
 70
     0
 62
    96
  6
Continuous
370
    -3
390
F
  0
LAYER
  5
79
330
2
100
AcDbSymbolTableRecord
100
AcDbLayerTableRecord
  2
BALON
 70
     0
 62
     5
  6
Continuous
370
    -3
390
F
  0
LAYER
  5
7A
330
2
100
AcDbSymbolTableRecord
100
AcDbLayerTableRecord
  2
VURGU
 70
     0
 62
     7
  6
Continuous
370
    -3
390
F
  0
LAYER
  5
7B
330
2
100
AcDbSymbolTableRecord
100
AcDbLayerTableRecord
  2
SILIK
 70
     0
 62
     7
  6
Continuous
370
    -3
390
F
  0
LAYER
  5
7C
330
2
100
AcDbSymbolTableRecord
100
AcDbLayerTableRecord
  2
MODEL
 70
     0
 62
     7
  6
Continuous
370
    -3
390
F
  0
LAYER
  5
7D
330
2
100
AcDbSymbolTableRecord
100
AcDbLayerTableRecord
  2
DETAYLANDıRMA
 70
     0
 62
   190
  6
Continuous
370
    -3
390
F
  0
LAYER
  5
7E
330
2
100
AcDbSymbolTableRecord
100
AcDbLayerTableRecord
  2
TOLERANS
 70
     0
 62
   230
  6
Continuous
370
    -3
390
F
  0
LAYER
  5
7F
330
2
100
AcDbSymbolTableRecord
100
AcDbLayerTableRecord
  2
MERKEZ_CIZGILERI
 70
     0
 62
    30
  6
Continuous
370
    -3
390
F
  0
LAYER
  5
80
330
2
100
AcDbSymbolTableRecord
100
AcDbLayerTableRecord
  2
KESIT-DETAY_CIZGILERI
 70
     0
 62
     7
  6
Continuous
370
    -3
390
F
  0
LAYER
  5
81
330
2
100
AcDbSymbolTableRecord
100
AcDbLayerTableRecord
  2
\U+041E\U+0421\U+0415\U+0412\U+042B\U+0415
 70
     0
 62
     7
  6
Continuous
370
    -3
390
F
  0
LAYER
  5
82
330
2
100
AcDbSymbolTableRecord
100
AcDbLayerTableRecord
  2
\U+0412\U+041E\U+0414\U+042F\U+041D\U+042B\U+0415_\U+0417\U+041D\U+0410\U+041A\U+0418
 70
     0
 62
    11
  6
Continuous
370
    -3
390
F
  0
ENDTAB
  0
TABLE
  2
STYLE
  5
3
330
0
100
AcDbSymbolTable
 70
     1
  0
STYLE
  5
11
330
3
100
AcDbSymbolTableRecord
100
AcDbTextStyleTableRecord
  2
Standard
 70
     0
 40
0.0
 41
1.0
 50
0.0
 71
     0
 42
3.5
  3
txt
  4

  0
ENDTAB
  0
TABLE
  2
VIEW
  5
6
330
0
100
AcDbSymbolTable
 70
     0
  0
ENDTAB
  0
TABLE
  2
UCS
  5
7
330
0
100
AcDbSymbolTable
 70
     0
  0
ENDTAB
  0
TABLE
  2
APPID
  5
9
330
0
100
AcDbSymbolTable
 70
     1
  0
APPID
  5
12
330
9
100
AcDbSymbolTableRecord
100
AcDbRegAppTableRecord
  2
ACAD
 70
     0
  0
ENDTAB
  0
TABLE
  2
DIMSTYLE
  5
A
330
0
100
AcDbSymbolTable
 70
     1
100
AcDbDimStyleTable
  0
DIMSTYLE
105
27
330
A
100
AcDbSymbolTableRecord
100
AcDbDimStyleTableRecord
  2
ISO-25
 70
     0
 41
2.5
 42
0.625
 43
3.75
 44
1.25
 73
     0
 74
     0
 77
     1
 78
     8
140
2.5
141
2.5
143
0.0393700787
147
0.625
171
     3
172
     1
178
     0
271
     2
272
     2
274
     3
278
    44
283
     0
284
     8
340
11
  0
ENDTAB
  0
TABLE
  2
BLOCK_RECORD
  5
1
330
0
100
AcDbSymbolTable
 70
    14
  0
BLOCK_RECORD
  5
1F
330
1
100
AcDbSymbolTableRecord
100
AcDbBlockTableRecord
  2
*Model_Space
340
22
  0
BLOCK_RECORD
  5
1B
330
1
100
AcDbSymbolTableRecord
100
AcDbBlockTableRecord
  2
*Paper_Space
340
1E
  0
BLOCK_RECORD
  5
23
330
1
100
AcDbSymbolTableRecord
100
AcDbBlockTableRecord
  2
*Paper_Space0
340
26
  0
BLOCK_RECORD
  5
9F
330
1
100
AcDbSymbolTableRecord
100
AcDbBlockTableRecord
  2
SW_CENTERMARKSYMBOL_0
340
0
102
{BLKREFS
331
AA
102
}
  0
BLOCK_RECORD
  5
AB
330
1
100
AcDbSymbolTableRecord
100
AcDbBlockTableRecord
  2
SW_CENTERMARKSYMBOL_1
340
0
102
{BLKREFS
331
B6
102
}
  0
BLOCK_RECORD
  5
B7
330
1
100
AcDbSymbolTableRecord
100
AcDbBlockTableRecord
  2
SW_CENTERMARKSYMBOL_2
340
0
102
{BLKREFS
331
C2
102
}
  0
BLOCK_RECORD
  5
C3
330
1
100
AcDbSymbolTableRecord
100
AcDbBlockTableRecord
  2
SW_CENTERMARKSYMBOL_3
340
0
102
{BLKREFS
331
CE
102
}
  0
BLOCK_RECORD
  5
CF
330
1
100
AcDbSymbolTableRecord
100
AcDbBlockTableRecord
  2
SW_CENTERMARKSYMBOL_4
340
0
102
{BLKREFS
331
DA
102
}
  0
BLOCK_RECORD
  5
DB
330
1
100
AcDbSymbolTableRecord
100
AcDbBlockTableRecord
  2
SW_CENTERMARKSYMBOL_5
340
0
102
{BLKREFS
331
E6
102
}
  0
BLOCK_RECORD
  5
E7
330
1
100
AcDbSymbolTableRecord
100
AcDbBlockTableRecord
  2
SW_CENTERMARKSYMBOL_6
340
0
102
{BLKREFS
331
F2
102
}
  0
BLOCK_RECORD
  5
F3
330
1
100
AcDbSymbolTableRecord
100
AcDbBlockTableRecord
  2
SW_CENTERMARKSYMBOL_7
340
0
102
{BLKREFS
331
FE
102
}
  0
BLOCK_RECORD
  5
FF
330
1
100
AcDbSymbolTableRecord
100
AcDbBlockTableRecord
  2
SW_CENTERMARKSYMBOL_8
340
0
102
{BLKREFS
331
10A
102
}
  0
BLOCK_RECORD
  5
10B
330
1
100
AcDbSymbolTableRecord
100
AcDbBlockTableRecord
  2
SW_CENTERMARKSYMBOL_9
340
0
102
{BLKREFS
331
116
102
}
  0
BLOCK_RECORD
  5
117
330
1
100
AcDbSymbolTableRecord
100
AcDbBlockTableRecord
  2
SW_CENTERMARKSYMBOL_10
340
0
102
{BLKREFS
331
122
102
}
  0
BLOCK_RECORD
  5
123
330
1
100
AcDbSymbolTableRecord
100
AcDbBlockTableRecord
  2
SW_CENTERMARKSYMBOL_11
340
0
102
{BLKREFS
331
12E
102
}
  0
BLOCK_RECORD
  5
12F
330
1
100
AcDbSymbolTableRecord
100
AcDbBlockTableRecord
  2
SW_CENTERMARKSYMBOL_12
340
0
102
{BLKREFS
331
13A
102
}
  0
ENDTAB
  0
ENDSEC
  0
SECTION
  2
BLOCKS
  0
BLOCK
  5
20
330
1F
100
AcDbEntity
  8
0
100
AcDbBlockBegin
  2
*Model_Space
 70
     0
 10
0.0
 20
0.0
 30
0.0
  3
*Model_Space
  1

  0
ENDBLK
  5
21
330
1F
100
AcDbEntity
  8
0
100
AcDbBlockEnd
  0
BLOCK
  5
1C
330
1B
100
AcDbEntity
 67
     1
  8
0
100
AcDbBlockBegin
  2
*Paper_Space
 70
     0
 10
0.0
 20
0.0
 30
0.0
  3
*Paper_Space
  1

  0
ENDBLK
  5
1D
330
1B
100
AcDbEntity
 67
     1
  8
0
100
AcDbBlockEnd
  0
BLOCK
  5
24
330
23
100
AcDbEntity
  8
0
100
AcDbBlockBegin
  2
*Paper_Space0
 70
     0
 10
0.0
 20
0.0
 30
0.0
  3
*Paper_Space0
  1

  0
ENDBLK
  5
25
330
23
100
AcDbEntity
  8
0
100
AcDbBlockEnd
  0
BLOCK
  5
A0
330
9F
100
AcDbEntity
  8
0
100
AcDbBlockBegin
  2
SW_CENTERMARKSYMBOL_0
 70
     0
 10
0.0
 20
0.0
 30
0.0
  3
SW_CENTERMARKSYMBOL_0
  1

  0
LINE
  5
A2
330
9F
100
AcDbEntity
  8
FORMAT
 62
     0
100
AcDbLine
 10
0.0
 20
0.0
 30
0.0
 11
0.0
 21
2.5
 31
0.0
  0
LINE
  5
A3
330
9F
100
AcDbEntity
  8
FORMAT
 62
     0
100
AcDbLine
 10
0.0
 20
0.0
 30
0.0
 11
-2.5
 21
0.0
 31
0.0
  0
LINE
  5
A4
330
9F
100
AcDbEntity
  8
FORMAT
 62
     0
100
AcDbLine
 10
0.0
 20
0.0
 30
0.0
 11
0.0
 21
-2.5
 31
0.0
  0
LINE
  5
A5
330
9F
100
AcDbEntity
  8
FORMAT
 62
     0
100
AcDbLine
 10
0.0
 20
0.0
 30
0.0
 11
2.5
 21
0.0
 31
0.0
  0
LINE
  5
A6
330
9F
100
AcDbEntity
  8
FORMAT
 62
     0
100
AcDbLine
 10
0.0
 20
5.0
 30
0.0
 11
0.0
 21
212.0
 31
0.0
  0
LINE
  5
A7
330
9F
100
AcDbEntity
  8
FORMAT
 62
     0
100
AcDbLine
 10
-5.0
 20
0.0
 30
0.0
 11
-212.0
 21
0.0
 31
0.0
  0
LINE
  5
A8
330
9F
100
AcDbEntity
  8
FORMAT
 62
     0
100
AcDbLine
 10
0.0
 20
-5.0
 30
0.0
 11
0.0
 21
-212.0
 31
0.0
  0
LINE
  5
A9
330
9F
100
AcDbEntity
  8
FORMAT
 62
     0
100
AcDbLine
 10
5.0
 20
0.0
 30
0.0
 11
212.0
 21
0.0
 31
0.0
  0
ENDBLK
  5
A1
330
9F
100
AcDbEntity
  8
0
100
AcDbBlockEnd
  0
BLOCK
  5
AC
330
AB
100
AcDbEntity
  8
0
100
AcDbBlockBegin
  2
SW_CENTERMARKSYMBOL_1
 70
     0
 10
0.0
 20
0.0
 30
0.0
  3
SW_CENTERMARKSYMBOL_1
  1

  0
LINE
  5
AE
330
AB
100
AcDbEntity
  8
FORMAT
 62
     0
100
AcDbLine
 10
0.0
 20
0.0
 30
0.0
 11
0.0
 21
2.5
 31
0.0
  0
LINE
  5
AF
330
AB
100
AcDbEntity
  8
FORMAT
 62
     0
100
AcDbLine
 10
0.0
 20
0.0
 30
0.0
 11
-2.5
 21
0.0
 31
0.0
  0
LINE
  5
B0
330
AB
100
AcDbEntity
  8
FORMAT
 62
     0
100
AcDbLine
 10
0.0
 20
0.0
 30
0.0
 11
0.0
 21
-2.5
 31
0.0
  0
LINE
  5
B1
330
AB
100
AcDbEntity
  8
FORMAT
 62
     0
100
AcDbLine
 10
0.0
 20
0.0
 30
0.0
 11
2.5
 21
0.0
 31
0.0
  0
LINE
  5
B2
330
AB
100
AcDbEntity
  8
FORMAT
 62
     0
100
AcDbLine
 10
0.0
 20
5.0
 30
0.0
 11
0.0
 21
15.5
 31
0.0
  0
LINE
  5
B3
330
AB
100
AcDbEntity
  8
FORMAT
 62
     0
100
AcDbLine
 10
-5.0
 20
0.0
 30
0.0
 11
-15.5
 21
0.0
 31
0.0
  0
LINE
  5
B4
330
AB
100
AcDbEntity
  8
FORMAT
 62
     0
100
AcDbLine
 10
0.0
 20
-5.0
 30
0.0
 11
0.0
 21
-15.5
 31
0.0
  0
LINE
  5
B5
330
AB
100
AcDbEntity
  8
FORMAT
 62
     0
100
AcDbLine
 10
5.0
 20
0.0
 30
0.0
 11
15.5
 21
0.0
 31
0.0
  0
ENDBLK
  5
AD
330
AB
100
AcDbEntity
  8
0
100
AcDbBlockEnd
  0
BLOCK
  5
B8
330
B7
100
AcDbEntity
  8
0
100
AcDbBlockBegin
  2
SW_CENTERMARKSYMBOL_2
 70
     0
 10
0.0
 20
0.0
 30
0.0
  3
SW_CENTERMARKSYMBOL_2
  1

  0
LINE
  5
BA
330
B7
100
AcDbEntity
  8
FORMAT
 62
     0
100
AcDbLine
 10
0.0
 20
0.0
 30
0.0
 11
0.0
 21
2.5
 31
0.0
  0
LINE
  5
BB
330
B7
100
AcDbEntity
  8
FORMAT
 62
     0
100
AcDbLine
 10
0.0
 20
0.0
 30
0.0
 11
-2.5
 21
0.0
 31
0.0
  0
LINE
  5
BC
330
B7
100
AcDbEntity
  8
FORMAT
 62
     0
100
AcDbLine
 10
0.0
 20
0.0
 30
0.0
 11
0.0
 21
-2.5
 31
0.0
  0
LINE
  5
BD
330
B7
100
AcDbEntity
  8
FORMAT
 62
     0
100
AcDbLine
 10
0.0
 20
0.0
 30
0.0
 11
2.5
 21
0.0
 31
0.0
  0
LINE
  5
BE
330
B7
100
AcDbEntity
  8
FORMAT
 62
     0
100
AcDbLine
 10
0.0
 20
5.0
 30
0.0
 11
0.0
 21
15.5
 31
0.0
  0
LINE
  5
BF
330
B7
100
AcDbEntity
  8
FORMAT
 62
     0
100
AcDbLine
 10
-5.0
 20
0.0
 30
0.0
 11
-15.5
 21
0.0
 31
0.0
  0
LINE
  5
C0
330
B7
100
AcDbEntity
  8
FORMAT
 62
     0
100
AcDbLine
 10
0.0
 20
-5.0
 30
0.0
 11
0.0
 21
-15.5
 31
0.0
  0
LINE
  5
C1
330
B7
100
AcDbEntity
  8
FORMAT
 62
     0
100
AcDbLine
 10
5.0
 20
0.0
 30
0.0
 11
15.5
 21
0.0
 31
0.0
  0
ENDBLK
  5
B9
330
B7
100
AcDbEntity
  8
0
100
AcDbBlockEnd
  0
BLOCK
  5
C4
330
C3
100
AcDbEntity
  8
0
100
AcDbBlockBegin
  2
SW_CENTERMARKSYMBOL_3
 70
     0
 10
0.0
 20
0.0
 30
0.0
  3
SW_CENTERMARKSYMBOL_3
  1

  0
LINE
  5
C6
330
C3
100
AcDbEntity
  8
FORMAT
 62
     0
100
AcDbLine
 10
0.0
 20
0.0
 30
0.0
 11
0.0
 21
2.5
 31
0.0
  0
LINE
  5
C7
330
C3
100
AcDbEntity
  8
FORMAT
 62
     0
100
AcDbLine
 10
0.0
 20
0.0
 30
0.0
 11
-2.5
 21
0.0
 31
0.0
  0
LINE
  5
C8
330
C3
100
AcDbEntity
  8
FORMAT
 62
     0
100
AcDbLine
 10
0.0
 20
0.0
 30
0.0
 11
0.0
 21
-2.5
 31
0.0
  0
LINE
  5
C9
330
C3
100
AcDbEntity
  8
FORMAT
 62
     0
100
AcDbLine
 10
0.0
 20
0.0
 30
0.0
 11
2.5
 21
0.0
 31
0.0
  0
LINE
  5
CA
330
C3
100
AcDbEntity
  8
FORMAT
 62
     0
100
AcDbLine
 10
0.0
 20
5.0
 30
0.0
 11
0.0
 21
15.5
 31
0.0
  0
LINE
  5
CB
330
C3
100
AcDbEntity
  8
FORMAT
 62
     0
100
AcDbLine
 10
-5.0
 20
0.0
 30
0.0
 11
-15.5
 21
0.0
 31
0.0
  0
LINE
  5
CC
330
C3
100
AcDbEntity
  8
FORMAT
 62
     0
100
AcDbLine
 10
0.0
 20
-5.0
 30
0.0
 11
0.0
 21
-15.5
 31
0.0
  0
LINE
  5
CD
330
C3
100
AcDbEntity
  8
FORMAT
 62
     0
100
AcDbLine
 10
5.0
 20
0.0
 30
0.0
 11
15.5
 21
0.0
 31
0.0
  0
ENDBLK
  5
C5
330
C3
100
AcDbEntity
  8
0
100
AcDbBlockEnd
  0
BLOCK
  5
D0
330
CF
100
AcDbEntity
  8
0
100
AcDbBlockBegin
  2
SW_CENTERMARKSYMBOL_4
 70
     0
 10
0.0
 20
0.0
 30
0.0
  3
SW_CENTERMARKSYMBOL_4
  1

  0
LINE
  5
D2
330
CF
100
AcDbEntity
  8
FORMAT
 62
     0
100
AcDbLine
 10
0.0
 20
0.0
 30
0.0
 11
0.0
 21
2.5
 31
0.0
  0
LINE
  5
D3
330
CF
100
AcDbEntity
  8
FORMAT
 62
     0
100
AcDbLine
 10
0.0
 20
0.0
 30
0.0
 11
-2.5
 21
0.0
 31
0.0
  0
LINE
  5
D4
330
CF
100
AcDbEntity
  8
FORMAT
 62
     0
100
AcDbLine
 10
0.0
 20
0.0
 30
0.0
 11
0.0
 21
-2.5
 31
0.0
  0
LINE
  5
D5
330
CF
100
AcDbEntity
  8
FORMAT
 62
     0
100
AcDbLine
 10
0.0
 20
0.0
 30
0.0
 11
2.5
 21
0.0
 31
0.0
  0
LINE
  5
D6
330
CF
100
AcDbEntity
  8
FORMAT
 62
     0
100
AcDbLine
 10
0.0
 20
5.0
 30
0.0
 11
0.0
 21
15.5
 31
0.0
  0
LINE
  5
D7
330
CF
100
AcDbEntity
  8
FORMAT
 62
     0
100
AcDbLine
 10
-5.0
 20
0.0
 30
0.0
 11
-15.5
 21
0.0
 31
0.0
  0
LINE
  5
D8
330
CF
100
AcDbEntity
  8
FORMAT
 62
     0
100
AcDbLine
 10
0.0
 20
-5.0
 30
0.0
 11
0.0
 21
-15.5
 31
0.0
  0
LINE
  5
D9
330
CF
100
AcDbEntity
  8
FORMAT
 62
     0
100
AcDbLine
 10
5.0
 20
0.0
 30
0.0
 11
15.5
 21
0.0
 31
0.0
  0
ENDBLK
  5
D1
330
CF
100
AcDbEntity
  8
0
100
AcDbBlockEnd
  0
BLOCK
  5
DC
330
DB
100
AcDbEntity
  8
0
100
AcDbBlockBegin
  2
SW_CENTERMARKSYMBOL_5
 70
     0
 10
0.0
 20
0.0
 30
0.0
  3
SW_CENTERMARKSYMBOL_5
  1

  0
LINE
  5
DE
330
DB
100
AcDbEntity
  8
FORMAT
 62
     0
100
AcDbLine
 10
0.0
 20
0.0
 30
0.0
 11
0.0
 21
2.5
 31
0.0
  0
LINE
  5
DF
330
DB
100
AcDbEntity
  8
FORMAT
 62
     0
100
AcDbLine
 10
0.0
 20
0.0
 30
0.0
 11
-2.5
 21
0.0
 31
0.0
  0
LINE
  5
E0
330
DB
100
AcDbEntity
  8
FORMAT
 62
     0
100
AcDbLine
 10
0.0
 20
0.0
 30
0.0
 11
0.0
 21
-2.5
 31
0.0
  0
LINE
  5
E1
330
DB
100
AcDbEntity
  8
FORMAT
 62
     0
100
AcDbLine
 10
0.0
 20
0.0
 30
0.0
 11
2.5
 21
0.0
 31
0.0
  0
LINE
  5
E2
330
DB
100
AcDbEntity
  8
FORMAT
 62
     0
100
AcDbLine
 10
0.0
 20
5.0
 30
0.0
 11
0.0
 21
16.5
 31
0.0
  0
LINE
  5
E3
330
DB
100
AcDbEntity
  8
FORMAT
 62
     0
100
AcDbLine
 10
-5.0
 20
0.0
 30
0.0
 11
-16.5
 21
0.0
 31
0.0
  0
LINE
  5
E4
330
DB
100
AcDbEntity
  8
FORMAT
 62
     0
100
AcDbLine
 10
0.0
 20
-5.0
 30
0.0
 11
0.0
 21
-16.5
 31
0.0
  0
LINE
  5
E5
330
DB
100
AcDbEntity
  8
FORMAT
 62
     0
100
AcDbLine
 10
5.0
 20
0.0
 30
0.0
 11
16.5
 21
0.0
 31
0.0
  0
ENDBLK
  5
DD
330
DB
100
AcDbEntity
  8
0
100
AcDbBlockEnd
  0
BLOCK
  5
E8
330
E7
100
AcDbEntity
  8
0
100
AcDbBlockBegin
  2
SW_CENTERMARKSYMBOL_6
 70
     0
 10
0.0
 20
0.0
 30
0.0
  3
SW_CENTERMARKSYMBOL_6
  1

  0
LINE
  5
EA
330
E7
100
AcDbEntity
  8
FORMAT
 62
     0
100
AcDbLine
 10
0.0
 20
0.0
 30
0.0
 11
0.0
 21
2.5
 31
0.0
  0
LINE
  5
EB
330
E7
100
AcDbEntity
  8
FORMAT
 62
     0
100
AcDbLine
 10
0.0
 20
0.0
 30
0.0
 11
-2.5
 21
0.0
 31
0.0
  0
LINE
  5
EC
330
E7
100
AcDbEntity
  8
FORMAT
 62
     0
100
AcDbLine
 10
0.0
 20
0.0
 30
0.0
 11
0.0
 21
-2.5
 31
0.0
  0
LINE
  5
ED
330
E7
100
AcDbEntity
  8
FORMAT
 62
     0
100
AcDbLine
 10
0.0
 20
0.0
 30
0.0
 11
2.5
 21
0.0
 31
0.0
  0
LINE
  5
EE
330
E7
100
AcDbEntity
  8
FORMAT
 62
     0
100
AcDbLine
 10
0.0
 20
5.0
 30
0.0
 11
0.0
 21
16.5
 31
0.0
  0
LINE
  5
EF
330
E7
100
AcDbEntity
  8
FORMAT
 62
     0
100
AcDbLine
 10
-5.0
 20
0.0
 30
0.0
 11
-16.5
 21
0.0
 31
0.0
  0
LINE
  5
F0
330
E7
100
AcDbEntity
  8
FORMAT
 62
     0
100
AcDbLine
 10
0.0
 20
-5.0
 30
0.0
 11
0.0
 21
-16.5
 31
0.0
  0
LINE
  5
F1
330
E7
100
AcDbEntity
  8
FORMAT
 62
     0
100
AcDbLine
 10
5.0
 20
0.0
 30
0.0
 11
16.5
 21
0.0
 31
0.0
  0
ENDBLK
  5
E9
330
E7
100
AcDbEntity
  8
0
100
AcDbBlockEnd
  0
BLOCK
  5
F4
330
F3
100
AcDbEntity
  8
0
100
AcDbBlockBegin
  2
SW_CENTERMARKSYMBOL_7
 70
     0
 10
0.0
 20
0.0
 30
0.0
  3
SW_CENTERMARKSYMBOL_7
  1

  0
LINE
  5
F6
330
F3
100
AcDbEntity
  8
FORMAT
 62
     0
100
AcDbLine
 10
0.0
 20
0.0
 30
0.0
 11
0.0
 21
2.5
 31
0.0
  0
LINE
  5
F7
330
F3
100
AcDbEntity
  8
FORMAT
 62
     0
100
AcDbLine
 10
0.0
 20
0.0
 30
0.0
 11
-2.5
 21
0.0
 31
0.0
  0
LINE
  5
F8
330
F3
100
AcDbEntity
  8
FORMAT
 62
     0
100
AcDbLine
 10
0.0
 20
0.0
 30
0.0
 11
0.0
 21
-2.5
 31
0.0
  0
LINE
  5
F9
330
F3
100
AcDbEntity
  8
FORMAT
 62
     0
100
AcDbLine
 10
0.0
 20
0.0
 30
0.0
 11
2.5
 21
0.0
 31
0.0
  0
LINE
  5
FA
330
F3
100
AcDbEntity
  8
FORMAT
 62
     0
100
AcDbLine
 10
0.0
 20
5.0
 30
0.0
 11
0.0
 21
16.5
 31
0.0
  0
LINE
  5
FB
330
F3
100
AcDbEntity
  8
FORMAT
 62
     0
100
AcDbLine
 10
-5.0
 20
0.0
 30
0.0
 11
-16.5
 21
0.0
 31
0.0
  0
LINE
  5
FC
330
F3
100
AcDbEntity
  8
FORMAT
 62
     0
100
AcDbLine
 10
0.0
 20
-5.0
 30
0.0
 11
0.0
 21
-16.5
 31
0.0
  0
LINE
  5
FD
330
F3
100
AcDbEntity
  8
FORMAT
 62
     0
100
AcDbLine
 10
5.0
 20
0.0
 30
0.0
 11
16.5
 21
0.0
 31
0.0
  0
ENDBLK
  5
F5
330
F3
100
AcDbEntity
  8
0
100
AcDbBlockEnd
  0
BLOCK
  5
100
330
FF
100
AcDbEntity
  8
0
100
AcDbBlockBegin
  2
SW_CENTERMARKSYMBOL_8
 70
     0
 10
0.0
 20
0.0
 30
0.0
  3
SW_CENTERMARKSYMBOL_8
  1

  0
LINE
  5
102
330
FF
100
AcDbEntity
  8
FORMAT
 62
     0
100
AcDbLine
 10
0.0
 20
0.0
 30
0.0
 11
0.0
 21
2.5
 31
0.0
  0
LINE
  5
103
330
FF
100
AcDbEntity
  8
FORMAT
 62
     0
100
AcDbLine
 10
0.0
 20
0.0
 30
0.0
 11
-2.5
 21
0.0
 31
0.0
  0
LINE
  5
104
330
FF
100
AcDbEntity
  8
FORMAT
 62
     0
100
AcDbLine
 10
0.0
 20
0.0
 30
0.0
 11
0.0
 21
-2.5
 31
0.0
  0
LINE
  5
105
330
FF
100
AcDbEntity
  8
FORMAT
 62
     0
100
AcDbLine
 10
0.0
 20
0.0
 30
0.0
 11
2.5
 21
0.0
 31
0.0
  0
LINE
  5
106
330
FF
100
AcDbEntity
  8
FORMAT
 62
     0
100
AcDbLine
 10
0.0
 20
5.0
 30
0.0
 11
0.0
 21
16.5
 31
0.0
  0
LINE
  5
107
330
FF
100
AcDbEntity
  8
FORMAT
 62
     0
100
AcDbLine
 10
-5.0
 20
0.0
 30
0.0
 11
-16.5
 21
0.0
 31
0.0
  0
LINE
  5
108
330
FF
100
AcDbEntity
  8
FORMAT
 62
     0
100
AcDbLine
 10
0.0
 20
-5.0
 30
0.0
 11
0.0
 21
-16.5
 31
0.0
  0
LINE
  5
109
330
FF
100
AcDbEntity
  8
FORMAT
 62
     0
100
AcDbLine
 10
5.0
 20
0.0
 30
0.0
 11
16.5
 21
0.0
 31
0.0
  0
ENDBLK
  5
101
330
FF
100
AcDbEntity
  8
0
100
AcDbBlockEnd
  0
BLOCK
  5
10C
330
10B
100
AcDbEntity
  8
0
100
AcDbBlockBegin
  2
SW_CENTERMARKSYMBOL_9
 70
     0
 10
0.0
 20
0.0
 30
0.0
  3
SW_CENTERMARKSYMBOL_9
  1

  0
LINE
  5
10E
330
10B
100
AcDbEntity
  8
FORMAT
 62
     0
100
AcDbLine
 10
0.0
 20
0.0
 30
0.0
 11
0.0
 21
2.5
 31
0.0
  0
LINE
  5
10F
330
10B
100
AcDbEntity
  8
FORMAT
 62
     0
100
AcDbLine
 10
0.0
 20
0.0
 30
0.0
 11
-2.5
 21
0.0
 31
0.0
  0
LINE
  5
110
330
10B
100
AcDbEntity
  8
FORMAT
 62
     0
100
AcDbLine
 10
0.0
 20
0.0
 30
0.0
 11
0.0
 21
-2.5
 31
0.0
  0
LINE
  5
111
330
10B
100
AcDbEntity
  8
FORMAT
 62
     0
100
AcDbLine
 10
0.0
 20
0.0
 30
0.0
 11
2.5
 21
0.0
 31
0.0
  0
LINE
  5
112
330
10B
100
AcDbEntity
  8
FORMAT
 62
     0
100
AcDbLine
 10
0.0
 20
5.0
 30
0.0
 11
0.0
 21
16.5
 31
0.0
  0
LINE
  5
113
330
10B
100
AcDbEntity
  8
FORMAT
 62
     0
100
AcDbLine
 10
-5.0
 20
0.0
 30
0.0
 11
-16.5
 21
0.0
 31
0.0
  0
LINE
  5
114
330
10B
100
AcDbEntity
  8
FORMAT
 62
     0
100
AcDbLine
 10
0.0
 20
-5.0
 30
0.0
 11
0.0
 21
-16.5
 31
0.0
  0
LINE
  5
115
330
10B
100
AcDbEntity
  8
FORMAT
 62
     0
100
AcDbLine
 10
5.0
 20
0.0
 30
0.0
 11
16.5
 21
0.0
 31
0.0
  0
ENDBLK
  5
10D
330
10B
100
AcDbEntity
  8
0
100
AcDbBlockEnd
  0
BLOCK
  5
118
330
117
100
AcDbEntity
  8
0
100
AcDbBlockBegin
  2
SW_CENTERMARKSYMBOL_10
 70
     0
 10
0.0
 20
0.0
 30
0.0
  3
SW_CENTERMARKSYMBOL_10
  1

  0
LINE
  5
11A
330
117
100
AcDbEntity
  8
FORMAT
 62
     0
100
AcDbLine
 10
0.0
 20
0.0
 30
0.0
 11
0.0
 21
2.5
 31
0.0
  0
LINE
  5
11B
330
117
100
AcDbEntity
  8
FORMAT
 62
     0
100
AcDbLine
 10
0.0
 20
0.0
 30
0.0
 11
-2.5
 21
0.0
 31
0.0
  0
LINE
  5
11C
330
117
100
AcDbEntity
  8
FORMAT
 62
     0
100
AcDbLine
 10
0.0
 20
0.0
 30
0.0
 11
0.0
 21
-2.5
 31
0.0
  0
LINE
  5
11D
330
117
100
AcDbEntity
  8
FORMAT
 62
     0
100
AcDbLine
 10
0.0
 20
0.0
 30
0.0
 11
2.5
 21
0.0
 31
0.0
  0
LINE
  5
11E
330
117
100
AcDbEntity
  8
FORMAT
 62
     0
100
AcDbLine
 10
0.0
 20
5.0
 30
0.0
 11
0.0
 21
16.5
 31
0.0
  0
LINE
  5
11F
330
117
100
AcDbEntity
  8
FORMAT
 62
     0
100
AcDbLine
 10
-5.0
 20
0.0
 30
0.0
 11
-16.5
 21
0.0
 31
0.0
  0
LINE
  5
120
330
117
100
AcDbEntity
  8
FORMAT
 62
     0
100
AcDbLine
 10
0.0
 20
-5.0
 30
0.0
 11
0.0
 21
-16.5
 31
0.0
  0
LINE
  5
121
330
117
100
AcDbEntity
  8
FORMAT
 62
     0
100
AcDbLine
 10
5.0
 20
0.0
 30
0.0
 11
16.5
 21
0.0
 31
0.0
  0
ENDBLK
  5
119
330
117
100
AcDbEntity
  8
0
100
AcDbBlockEnd
  0
BLOCK
  5
124
330
123
100
AcDbEntity
  8
0
100
AcDbBlockBegin
  2
SW_CENTERMARKSYMBOL_11
 70
     0
 10
0.0
 20
0.0
 30
0.0
  3
SW_CENTERMARKSYMBOL_11
  1

  0
LINE
  5
126
330
123
100
AcDbEntity
  8
FORMAT
 62
     0
100
AcDbLine
 10
0.0
 20
0.0
 30
0.0
 11
0.0
 21
2.5
 31
0.0
  0
LINE
  5
127
330
123
100
AcDbEntity
  8
FORMAT
 62
     0
100
AcDbLine
 10
0.0
 20
0.0
 30
0.0
 11
-2.5
 21
0.0
 31
0.0
  0
LINE
  5
128
330
123
100
AcDbEntity
  8
FORMAT
 62
     0
100
AcDbLine
 10
0.0
 20
0.0
 30
0.0
 11
0.0
 21
-2.5
 31
0.0
  0
LINE
  5
129
330
123
100
AcDbEntity
  8
FORMAT
 62
     0
100
AcDbLine
 10
0.0
 20
0.0
 30
0.0
 11
2.5
 21
0.0
 31
0.0
  0
LINE
  5
12A
330
123
100
AcDbEntity
  8
FORMAT
 62
     0
100
AcDbLine
 10
0.0
 20
5.0
 30
0.0
 11
0.0
 21
16.5
 31
0.0
  0
LINE
  5
12B
330
123
100
AcDbEntity
  8
FORMAT
 62
     0
100
AcDbLine
 10
-5.0
 20
0.0
 30
0.0
 11
-16.5
 21
0.0
 31
0.0
  0
LINE
  5
12C
330
123
100
AcDbEntity
  8
FORMAT
 62
     0
100
AcDbLine
 10
0.0
 20
-5.0
 30
0.0
 11
0.0
 21
-16.5
 31
0.0
  0
LINE
  5
12D
330
123
100
AcDbEntity
  8
FORMAT
 62
     0
100
AcDbLine
 10
5.0
 20
0.0
 30
0.0
 11
16.5
 21
0.0
 31
0.0
  0
ENDBLK
  5
125
330
123
100
AcDbEntity
  8
0
100
AcDbBlockEnd
  0
BLOCK
  5
130
330
12F
100
AcDbEntity
  8
0
100
AcDbBlockBegin
  2
SW_CENTERMARKSYMBOL_12
 70
     0
 10
0.0
 20
0.0
 30
0.0
  3
SW_CENTERMARKSYMBOL_12
  1

  0
LINE
  5
132
330
12F
100
AcDbEntity
  8
FORMAT
 62
     0
100
AcDbLine
 10
0.0
 20
0.0
 30
0.0
 11
0.0
 21
2.5
 31
0.0
  0
LINE
  5
133
330
12F
100
AcDbEntity
  8
FORMAT
 62
     0
100
AcDbLine
 10
0.0
 20
0.0
 30
0.0
 11
-2.5
 21
0.0
 31
0.0
  0
LINE
  5
134
330
12F
100
AcDbEntity
  8
FORMAT
 62
     0
100
AcDbLine
 10
0.0
 20
0.0
 30
0.0
 11
0.0
 21
-2.5
 31
0.0
  0
LINE
  5
135
330
12F
100
AcDbEntity
  8
FORMAT
 62
     0
100
AcDbLine
 10
0.0
 20
0.0
 30
0.0
 11
2.5
 21
0.0
 31
0.0
  0
LINE
  5
136
330
12F
100
AcDbEntity
  8
FORMAT
 62
     0
100
AcDbLine
 10
0.0
 20
5.0
 30
0.0
 11
0.0
 21
16.5
 31
0.0
  0
LINE
  5
137
330
12F
100
AcDbEntity
  8
FORMAT
 62
     0
100
AcDbLine
 10
-5.0
 20
0.0
 30
0.0
 11
-16.5
 21
0.0
 31
0.0
  0
LINE
  5
138
330
12F
100
AcDbEntity
  8
FORMAT
 62
     0
100
AcDbLine
 10
0.0
 20
-5.0
 30
0.0
 11
0.0
 21
-16.5
 31
0.0
  0
LINE
  5
139
330
12F
100
AcDbEntity
  8
FORMAT
 62
     0
100
AcDbLine
 10
5.0
 20
0.0
 30
0.0
 11
16.5
 21
0.0
 31
0.0
  0
ENDBLK
  5
131
330
12F
100
AcDbEntity
  8
0
100
AcDbBlockEnd
  0
ENDSEC
  0
SECTION
  2
ENTITIES
  0
CIRCLE
  5
83
330
1F
100
AcDbEntity
  8
0
  6
Continuous
 62
     7
370
    25
100
AcDbCircle
 10
-18.6089153513
 20
204.4409958732
 30
0.0
 40
14.00000000000001
  0
CIRCLE
  5
84
330
1F
100
AcDbEntity
  8
0
  6
Continuous
 62
     7
370
    25
100
AcDbCircle
 10
-18.6089153513
 20
26.9409958732
 30
0.0
 40
14.00000000000001
  0
CIRCLE
  5
85
330
1F
100
AcDbEntity
  8
0
  6
Continuous
 62
     7
370
    25
100
AcDbCircle
 10
135.1105938204
 20
-61.8090041268
 30
0.0
 40
13.99999999999997
  0
CIRCLE
  5
86
330
1F
100
AcDbEntity
  8
0
  6
Continuous
 62
     7
370
    25
100
AcDbCircle
 10
312.6105938204
 20
115.6909958732
 30
0.0
 40
14.0
  0
CIRCLE
  5
87
330
1F
100
AcDbEntity
  8
0
  6
Continuous
 62
     7
370
    25
100
AcDbCircle
 10
223.8605938204
 20
269.410505045
 30
0.0
 40
14.00000000000003
  0
CIRCLE
  5
88
330
1F
100
AcDbEntity
  8
0
  6
Continuous
 62
     7
370
    25
100
AcDbCircle
 10
135.1105938204
 20
293.1909958732
 30
0.0
 40
14.0
  0
CIRCLE
  5
89
330
1F
100
AcDbEntity
  8
0
  6
Continuous
 62
     7
370
    25
100
AcDbCircle
 10
135.1105938204
 20
115.6909958732
 30
0.0
 40
208.5
  0
CIRCLE
  5
8A
330
1F
100
AcDbEntity
  8
0
  6
Continuous
 62
     7
370
    25
100
AcDbCircle
 10
135.1105938204
 20
115.6909958732
 30
0.0
 40
145.0
  0
CIRCLE
  5
8B
330
1F
100
AcDbEntity
  8
0
  6
Continuous
 62
     7
370
    25
100
AcDbCircle
 10
288.8301029921
 20
26.9409958732
 30
0.0
 40
14.0
  0
CIRCLE
  5
8C
330
1F
100
AcDbEntity
  8
0
  6
Continuous
 62
     7
370
    25
100
AcDbCircle
 10
288.8301029922
 20
204.4409958732
 30
0.0
 40
14.0
  0
CIRCLE
  5
8D
330
1F
100
AcDbEntity
  8
0
  6
Continuous
 62
     7
370
    25
100
AcDbCircle
 10
223.8605938204
 20
-38.0285132985
 30
0.0
 40
14.00000000000003
  0
CIRCLE
  5
8E
330
1F
100
AcDbEntity
  8
0
  6
Continuous
 62
     7
370
    25
100
AcDbCircle
 10
46.3605938204
 20
-38.0285132985
 30
0.0
 40
14.00000000000001
  0
CIRCLE
  5
8F
330
1F
100
AcDbEntity
  8
0
  6
Continuous
 62
     7
370
    25
100
AcDbCircle
 10
-42.3894061796
 20
115.6909958732
 30
0.0
 40
14.00000000000001
  0
CIRCLE
  5
90
330
1F
100
AcDbEntity
  8
0
  6
Continuous
 62
     7
370
    25
100
AcDbCircle
 10
46.3605938204
 20
269.410505045
 30
0.0
 40
14.00000000000001
  0
CIRCLE
  5
91
330
1F
100
AcDbEntity
  8
0
  6
Continuous
 62
     7
370
    25
100
AcDbCircle
 10
288.8301029922
 20
204.4409958732
 30
0.0
 40
13.0
  0
CIRCLE
  5
92
330
1F
100
AcDbEntity
  8
0
  6
Continuous
 62
     7
370
    25
100
AcDbCircle
 10
288.8301029921
 20
26.9409958732
 30
0.0
 40
13.0
  0
CIRCLE
  5
93
330
1F
100
AcDbEntity
  8
0
  6
Continuous
 62
     7
370
    25
100
AcDbCircle
 10
135.1105938204
 20
115.6909958732
 30
0.0
 40
144.0
  0
CIRCLE
  5
94
330
1F
100
AcDbEntity
  8
0
  6
Continuous
 62
     7
370
    25
100
AcDbCircle
 10
135.1105938204
 20
115.6909958732
 30
0.0
 40
209.5
  0
CIRCLE
  5
95
330
1F
100
AcDbEntity
  8
0
  6
Continuous
 62
     7
370
    25
100
AcDbCircle
 10
135.1105938204
 20
293.1909958732
 30
0.0
 40
13.0
  0
CIRCLE
  5
96
330
1F
100
AcDbEntity
  8
0
  6
Continuous
 62
     7
370
    25
100
AcDbCircle
 10
223.8605938204
 20
269.410505045
 30
0.0
 40
13.00000000000003
  0
CIRCLE
  5
97
330
1F
100
AcDbEntity
  8
0
  6
Continuous
 62
     7
370
    25
100
AcDbCircle
 10
312.6105938204
 20
115.6909958732
 30
0.0
 40
13.0
  0
CIRCLE
  5
98
330
1F
100
AcDbEntity
  8
0
  6
Continuous
 62
     7
370
    25
100
AcDbCircle
 10
46.3605938204
 20
269.410505045
 30
0.0
 40
13.00000000000001
  0
CIRCLE
  5
99
330
1F
100
AcDbEntity
  8
0
  6
Continuous
 62
     7
370
    25
100
AcDbCircle
 10
-42.3894061796
 20
115.6909958732
 30
0.0
 40
13.00000000000001
  0
CIRCLE
  5
9A
330
1F
100
AcDbEntity
  8
0
  6
Continuous
 62
     7
370
    25
100
AcDbCircle
 10
46.3605938204
 20
-38.0285132985
 30
0.0
 40
13.00000000000001
  0
CIRCLE
  5
9B
330
1F
100
AcDbEntity
  8
0
  6
Continuous
 62
     7
370
    25
100
AcDbCircle
 10
223.8605938204
 20
-38.0285132985
 30
0.0
 40
13.0
  0
CIRCLE
  5
9C
330
1F
100
AcDbEntity
  8
0
  6
Continuous
 62
     7
370
    25
100
AcDbCircle
 10
135.1105938204
 20
-61.8090041268
 30
0.0
 40
12.99999999999997
  0
CIRCLE
  5
9D
330
1F
100
AcDbEntity
  8
0
  6
Continuous
 62
     7
370
    25
100
AcDbCircle
 10
-18.6089153513
 20
26.9409958732
 30
0.0
 40
13.00000000000001
  0
CIRCLE
  5
9E
330
1F
100
AcDbEntity
  8
0
  6
Continuous
 62
     7
370
    25
100
AcDbCircle
 10
-18.6089153513
 20
204.4409958732
 30
0.0
 40
13.00000000000001
  0
INSERT
  5
AA
330
1F
100
AcDbEntity
  8
FORMAT
 62
     7
100
AcDbBlockReference
  2
SW_CENTERMARKSYMBOL_0
 10
135.1105938204
 20
115.6909958732
 30
0.0
  0
INSERT
  5
B6
330
1F
100
AcDbEntity
  8
FORMAT
 62
     7
100
AcDbBlockReference
  2
SW_CENTERMARKSYMBOL_1
 10
135.1105938204
 20
293.1909958732
 30
0.0
  0
INSERT
  5
C2
330
1F
100
AcDbEntity
  8
FORMAT
 62
     7
100
AcDbBlockReference
  2
SW_CENTERMARKSYMBOL_2
 10
223.8605938204
 20
269.410505045
 30
0.0
  0
INSERT
  5
CE
330
1F
100
AcDbEntity
  8
FORMAT
 62
     7
100
AcDbBlockReference
  2
SW_CENTERMARKSYMBOL_3
 10
288.8301029922
 20
204.4409958732
 30
0.0
  0
INSERT
  5
DA
330
1F
100
AcDbEntity
  8
FORMAT
 62
     7
100
AcDbBlockReference
  2
SW_CENTERMARKSYMBOL_4
 10
312.6105938204
 20
115.6909958732
 30
0.0
  0
INSERT
  5
E6
330
1F
100
AcDbEntity
  8
FORMAT
 62
     7
100
AcDbBlockReference
  2
SW_CENTERMARKSYMBOL_5
 10
46.3605938204
 20
-38.0285132985
 30
0.0
  0
INSERT
  5
F2
330
1F
100
AcDbEntity
  8
FORMAT
 62
     7
100
AcDbBlockReference
  2
SW_CENTERMARKSYMBOL_6
 10
135.1105938204
 20
-61.8090041268
 30
0.0
  0
INSERT
  5
FE
330
1F
100
AcDbEntity
  8
FORMAT
 62
     7
100
AcDbBlockReference
  2
SW_CENTERMARKSYMBOL_7
 10
223.8605938204
 20
-38.0285132985
 30
0.0
  0
INSERT
  5
10A
330
1F
100
AcDbEntity
  8
FORMAT
 62
     7
100
AcDbBlockReference
  2
SW_CENTERMARKSYMBOL_8
 10
46.3605938204
 20
269.410505045
 30
0.0
  0
INSERT
  5
116
330
1F
100
AcDbEntity
  8
FORMAT
 62
     7
100
AcDbBlockReference
  2
SW_CENTERMARKSYMBOL_9
 10
-18.6089153513
 20
204.4409958732
 30
0.0
  0
INSERT
  5
122
330
1F
100
AcDbEntity
  8
FORMAT
 62
     7
100
AcDbBlockReference
  2
SW_CENTERMARKSYMBOL_10
 10
-42.3894061796
 20
115.6909958732
 30
0.0
  0
INSERT
  5
12E
330
1F
100
AcDbEntity
  8
FORMAT
 62
     7
100
AcDbBlockReference
  2
SW_CENTERMARKSYMBOL_11
 10
-18.6089153513
 20
26.9409958732
 30
0.0
  0
INSERT
  5
13A
330
1F
100
AcDbEntity
  8
FORMAT
 62
     7
100
AcDbBlockReference
  2
SW_CENTERMARKSYMBOL_12
 10
288.8301029921
 20
26.9409958732
 30
0.0
  0
LINE
  5
13B
330
1F
100
AcDbEntity
  8
0
  6
Continuous
 62
     7
370
    25
100
AcDbLine
 10
-290.6381397149
 20
325.1909958732
 30
0.0
 11
-320.6381397149
 21
325.1909958732
 31
0.0
  0
LINE
  5
13C
330
1F
100
AcDbEntity
  8
0
  6
Continuous
 62
     7
370
    25
100
AcDbLine
 10
-320.6381397149
 20
-93.8090041268
 30
0.0
 11
-290.6381397149
 21
-93.8090041268
 31
0.0
  0
ARC
  5
13D
330
1F
100
AcDbEntity
  8
0
  6
Continuous
 62
     7
370
    25
100
AcDbCircle
 10
-290.6381397149
 20
-92.8090041268
 30
0.0
 40
1.000000000000014
100
AcDbArc
 50
270.0
 51
0.0
  0
ARC
  5
13E
330
1F
100
AcDbEntity
  8
0
  6
Continuous
 62
     7
370
    25
100
AcDbCircle
 10
-290.6381397149
 20
324.1909958732
 30
0.0
 40
1.0
100
AcDbArc
 50
0.0
 51
90.0
  0
ARC
  5
13F
330
1F
100
AcDbEntity
  8
0
  6
Continuous
 62
     7
370
    25
100
AcDbCircle
 10
-320.6381397149
 20
-92.8090041268
 30
0.0
 40
1.000000000000014
100
AcDbArc
 50
180.0
 51
270.0
  0
ARC
  5
140
330
1F
100
AcDbEntity
  8
0
  6
Continuous
 62
     7
370
    25
100
AcDbCircle
 10
-320.6381397149
 20
324.1909958732
 30
0.0
 40
1.0
100
AcDbArc
 50
90.0
 51
180.0
  0
LINE
  5
141
330
1F
100
AcDbEntity
  8
0
  6
Continuous
 62
     7
370
    25
100
AcDbLine
 10
-289.6381397149
 20
115.6909958732
 30
0.0
 11
-289.6381397149
 21
-92.8090041268
 31
0.0
  0
LINE
  5
142
330
1F
100
AcDbEntity
  8
0
  6
Continuous
 62
     7
370
    25
100
AcDbLine
 10
-289.6381397149
 20
324.1909958732
 30
0.0
 11
-289.6381397149
 21
115.6909958732
 31
0.0
  0
LINE
  5
143
330
1F
100
AcDbEntity
  8
0
  6
Continuous
 62
     7
370
    25
100
AcDbLine
 10
-321.6381397149
 20
115.6909958732
 30
0.0
 11
-321.6381397149
 21
324.1909958732
 31
0.0
  0
LINE
  5
144
330
1F
100
AcDbEntity
  8
0
  6
Continuous
 62
     7
370
    25
100
AcDbLine
 10
-321.6381397149
 20
-92.8090041268
 30
0.0
 11
-321.6381397149
 21
115.6909958732
 31
0.0
  0
LINE
  5
145
330
1F
100
AcDbEntity
  8
0
  6
Continuous
 62
     1
370
    25
100
AcDbLine
 10
-320.6381397149
 20
115.6909958732
 30
0.0
 11
-320.6381397149
 21
-93.8090041268
 31
0.0
  0
LINE
  5
146
330
1F
100
AcDbEntity
  8
0
  6
Continuous
 62
     1
370
    25
100
AcDbLine
 10
-320.6381397149
 20
325.1909958732
 30
0.0
 11
-320.6381397149
 21
115.6909958732
 31
0.0
  0
LINE
  5
147
330
1F
100
AcDbEntity
  8
0
  6
Continuous
 62
     1
370
    25
100
AcDbLine
 10
-290.6381397149
 20
115.6909958732
 30
0.0
 11
-290.6381397149
 21
325.1909958732
 31
0.0
  0
LINE
  5
148
330
1F
100
AcDbEntity
  8
0
  6
Continuous
 62
     1
370
    25
100
AcDbLine
 10
-290.6381397149
 20
-93.8090041268
 30
0.0
 11
-290.6381397149
 21
115.6909958732
 31
0.0
  0
LINE
  5
149
330
1F
100
AcDbEntity
  8
0
  6
Continuous
 62
     7
370
    25
100
AcDbLine
 10
556.2486323772
 20
-93.8090041268
 30
0.0
 11
586.2486323772
 21
-93.8090041268
 31
0.0
  0
LINE
  5
14A
330
1F
100
AcDbEntity
  8
0
  6
Continuous
 62
     7
370
    25
100
AcDbLine
 10
586.2486323772
 20
325.1909958732
 30
0.0
 11
556.2486323772
 21
325.1909958732
 31
0.0
  0
ARC
  5
14B
330
1F
100
AcDbEntity
  8
0
  6
Continuous
 62
     7
370
    25
100
AcDbCircle
 10
556.2486323772
 20
324.1909958732
 30
0.0
 40
1.0
100
AcDbArc
 50
90.0
 51
180.0
  0
ARC
  5
14C
330
1F
100
AcDbEntity
  8
0
  6
Continuous
 62
     7
370
    25
100
AcDbCircle
 10
556.2486323772
 20
-92.8090041268
 30
0.0
 40
1.000000000000014
100
AcDbArc
 50
180.0
 51
270.0
  0
ARC
  5
14D
330
1F
100
AcDbEntity
  8
0
  6
Continuous
 62
     7
370
    25
100
AcDbCircle
 10
586.2486323772
 20
324.1909958732
 30
0.0
 40
1.0
100
AcDbArc
 50
0.0
 51
90.0
  0
ARC
  5
14E
330
1F
100
AcDbEntity
  8
0
  6
Continuous
 62
     7
370
    25
100
AcDbCircle
 10
586.2486323772
 20
-92.8090041268
 30
0.0
 40
1.000000000000014
100
AcDbArc
 50
270.0
 51
0.0
  0
LINE
  5
14F
330
1F
100
AcDbEntity
  8
0
  6
Continuous
 62
     7
370
    25
100
AcDbLine
 10
555.2486323772
 20
-92.8090041268
 30
0.0
 11
555.2486323772
 21
324.1909958732
 31
0.0
  0
LINE
  5
150
330
1F
100
AcDbEntity
  8
0
  6
Continuous
 62
     7
370
    25
100
AcDbLine
 10
587.2486323772
 20
324.1909958732
 30
0.0
 11
587.2486323772
 21
-92.8090041268
 31
0.0
  0
LINE
  5
151
330
1F
100
AcDbEntity
  8
0
  6
Continuous
 62
     1
370
    25
100
AcDbLine
 10
586.2486323772
 20
-93.8090041268
 30
0.0
 11
586.2486323772
 21
325.1909958732
 31
0.0
  0
LINE
  5
152
330
1F
100
AcDbEntity
  8
0
  6
Continuous
 62
     1
370
    25
100
AcDbLine
 10
556.2486323772
 20
325.1909958732
 30
0.0
 11
556.2486323772
 21
-93.8090041268
 31
0.0
  0
LINE
  5
153
330
1F
100
AcDbEntity
  8
0
  6
Continuous
 62
     7
370
    25
100
AcDbLine
 10
344.6105938204
 20
456.5232596424
 30
0.0
 11
344.6105938204
 21
486.5232596424
 31
0.0
  0
LINE
  5
154
330
1F
100
AcDbEntity
  8
0
  6
Continuous
 62
     7
370
    25
100
AcDbLine
 10
-74.3894061796
 20
486.5232596424
 30
0.0
 11
-74.3894061796
 21
456.5232596424
 31
0.0
  0
ARC
  5
155
330
1F
100
AcDbEntity
  8
0
  6
Continuous
 62
     7
370
    25
100
AcDbCircle
 10
-73.3894061796
 20
456.5232596424
 30
0.0
 40
1.0
100
AcDbArc
 50
180.0
 51
270.0
  0
ARC
  5
156
330
1F
100
AcDbEntity
  8
0
  6
Continuous
 62
     7
370
    25
100
AcDbCircle
 10
343.6105938204
 20
456.5232596424
 30
0.0
 40
1.0
100
AcDbArc
 50
270.0
 51
0.0
  0
ARC
  5
157
330
1F
100
AcDbEntity
  8
0
  6
Continuous
 62
     7
370
    25
100
AcDbCircle
 10
-73.3894061796
 20
486.5232596424
 30
0.0
 40
1.0
100
AcDbArc
 50
90.0
 51
180.0
  0
ARC
  5
158
330
1F
100
AcDbEntity
  8
0
  6
Continuous
 62
     7
370
    25
100
AcDbCircle
 10
343.6105938204
 20
486.5232596424
 30
0.0
 40
1.0
100
AcDbArc
 50
0.0
 51
90.0
  0
LINE
  5
159
330
1F
100
AcDbEntity
  8
0
  6
Continuous
 62
     7
370
    25
100
AcDbLine
 10
343.6105938204
 20
455.5232596424
 30
0.0
 11
-73.3894061784
 21
455.5232596424
 31
0.0
  0
LINE
  5
15A
330
1F
100
AcDbEntity
  8
0
  6
Continuous
 62
     7
370
    25
100
AcDbLine
 10
-73.3894061784
 20
487.5232596424
 30
0.0
 11
343.6105938204
 21
487.5232596424
 31
0.0
  0
LINE
  5
15B
330
1F
100
AcDbEntity
  8
0
  6
Continuous
 62
     1
370
    25
100
AcDbLine
 10
344.6105938204
 20
486.5232596424
 30
0.0
 11
-74.3894061796
 21
486.5232596424
 31
0.0
  0
LINE
  5
15C
330
1F
100
AcDbEntity
  8
0
  6
Continuous
 62
     1
370
    25
100
AcDbLine
 10
-74.3894061796
 20
456.5232596424
 30
0.0
 11
344.6105938204
 21
456.5232596424
 31
0.0
  0
LINE
  5
15D
330
1F
100
AcDbEntity
  8
0
  6
Continuous
 62
     7
370
    25
100
AcDbLine
 10
-74.3894061796
 20
-323.6395431727
 30
0.0
 11
-74.3894061796
 21
-353.6395431727
 31
0.0
  0
LINE
  5
15E
330
1F
100
AcDbEntity
  8
0
  6
Continuous
 62
     7
370
    25
100
AcDbLine
 10
344.6105938204
 20
-353.6395431727
 30
0.0
 11
344.6105938204
 21
-323.6395431727
 31
0.0
  0
ARC
  5
15F
330
1F
100
AcDbEntity
  8
0
  6
Continuous
 62
     7
370
    25
100
AcDbCircle
 10
343.6105938204
 20
-323.6395431727
 30
0.0
 40
1.0
100
AcDbArc
 50
0.0
 51
90.0
  0
ARC
  5
160
330
1F
100
AcDbEntity
  8
0
  6
Continuous
 62
     7
370
    25
100
AcDbCircle
 10
-73.3894061796
 20
-323.6395431727
 30
0.0
 40
1.0
100
AcDbArc
 50
90.0
 51
180.0
  0
ARC
  5
161
330
1F
100
AcDbEntity
  8
0
  6
Continuous
 62
     7
370
    25
100
AcDbCircle
 10
343.6105938204
 20
-353.6395431727
 30
0.0
 40
1.0
100
AcDbArc
 50
270.0
 51
0.0
  0
ARC
  5
162
330
1F
100
AcDbEntity
  8
0
  6
Continuous
 62
     7
370
    25
100
AcDbCircle
 10
-73.3894061796
 20
-353.6395431727
 30
0.0
 40
1.0
100
AcDbArc
 50
180.0
 51
270.0
  0
LINE
  5
163
330
1F
100
AcDbEntity
  8
0
  6
Continuous
 62
     7
370
    25
100
AcDbLine
 10
-73.3894061784
 20
-322.6395431727
 30
0.0
 11
343.6105938204
 21
-322.6395431727
 31
0.0
  0
LINE
  5
164
330
1F
100
AcDbEntity
  8
0
  6
Continuous
 62
     7
370
    25
100
AcDbLine
 10
343.6105938204
 20
-354.6395431727
 30
0.0
 11
-73.3894061784
 21
-354.6395431727
 31
0.0
  0
LINE
  5
165
330
1F
100
AcDbEntity
  8
0
  6
Continuous
 62
     1
370
    25
100
AcDbLine
 10
-74.3894061796
 20
-353.6395431727
 30
0.0
 11
344.6105938204
 21
-353.6395431727
 31
0.0
  0
LINE
  5
166
330
1F
100
AcDbEntity
  8
0
  6
Continuous
 62
     1
370
    25
100
AcDbLine
 10
344.6105938204
 20
-323.6395431727
 30
0.0
 11
-74.3894061796
 21
-323.6395431727
 31
0.0
  0
SPLINE
  5
167
330
1F
100
AcDbEntity
  8
0
  6
Continuous
 62
     7
370
    25
100
AcDbSpline
210
0.0
220
0.0
230
1.0
 70
     8
 71
     3
 72
    75
 73
    71
 74
     0
 42
0.00000001
 43
0.00000001
 40
0.0
 40
0.0
 40
0.0
 40
0.0
 40
0.0077344422280287
 40
0.0225403813229894
 40
0.0373538619128896
 40
0.0521743993670251
 40
0.0670012908834216
 40
0.0818337061180179
 40
0.0966707651111172
 40
0.111511599044174
 40
0.1263553930687706
 40
0.1412014129185649
 40
0.1560490182920129
 40
0.1708976663527599
 40
0.1857469084682177
 40
0.2005963741747511
 40
0.2154457077437364
 40
0.2302947114679112
 40
0.2451432409390967
 40
0.259991195871476
 40
0.2748385119920015
 40
0.2896851540521911
 40
0.3045311099275217
 40
0.3193763857165471
 40
0.3342210017263765
 40
0.3490649892239682
 40
0.3639083878364066
 40
0.3787512434929102
 40
0.3935936068135937
 40
0.4084355318628115
 40
0.4232770751973511
 40
0.4381182951507471
 40
0.4529592513048586
 40
0.4678000041079264
 40
0.4826406146051228
 40
0.4974811442529619
 40
0.5123216547930264
 40
0.5271622008369498
 40
0.5420028311312403
 40
0.5568436078254404
 40
0.5716845930677242
 40
0.5865258488881085
 40
0.6013674370293919
 40
0.6162094187001492
 40
0.6310518542218956
 40
0.6458948025373885
 40
0.6607383205404179
 40
0.6755824621795172
 40
0.6904272772782871
 40
0.7052728100040325
 40
0.7201190969037433
 40
0.7349661644132226
 40
0.7498140257317697
 40
0.7646626769435145
 40
0.7795120922596828
 40
0.7943622182585193
 40
0.8092129670178816
 40
0.8240642080791273
 40
0.8389157592630492
 40
0.8537673143802273
 40
0.8686184963975464
 40
0.8834688756062788
 40
0.8983179267523648
 40
0.9131650236630096
 40
0.9280094398143458
 40
0.9428503578930956
 40
0.9576868917842372
 40
0.9725181242941304
 40
0.987343162958661
 40
1.0
 40
1.0
 40
1.0
 40
1.0
 10
666.7789603285405
 20
-141.04533389135
 30
0.0
 10
665.9096093071922
 20
-140.9609985679
 30
0.0
 10
663.3760712772992
 20
-140.715221265088
 30
0.0
 10
659.0608492969534
 20
-140.6230874534625
 30
0.0
 10
653.8500516809789
 20
-140.7482408589249
 30
0.0
 10
648.541505783559
 20
-141.1771016150148
 30
0.0
 10
643.1503343003203
 20
-141.890602513229
 30
0.0
 10
637.6829299308527
 20
-142.8926862588048
 30
0.0
 10
632.1481938209299
 20
-144.1805214821057
 30
0.0
 10
626.554486956239
 20
-145.752495329254
 30
0.0
 10
620.910416336517
 20
-147.6060822810368
 30
0.0
 10
615.2245977056975
 20
-149.7384299631749
 30
0.0
 10
609.5056970175208
 20
-152.1462177502187
 30
0.0
 10
603.7624008155409
 20
-154.8257103130402
 30
0.0
 10
598.0034094931458
 20
-157.7727577061468
 30
0.0
 10
592.2374335139324
 20
-160.9828045161914
 30
0.0
 10
586.4731718478884
 20
-164.4509041704154
 30
0.0
 10
580.7193012650365
 20
-168.1717301288819
 30
0.0
 10
574.9844589503634
 20
-172.139591823695
 30
0.0
 10
569.2772447689345
 20
-176.3484367722658
 30
0.0
 10
563.6062109529538
 20
-180.7918595631198
 30
0.0
 10
557.9798514488745
 20
-185.4631110593643
 30
0.0
 10
552.4065909590273
 20
-190.3551079209915
 30
0.0
 10
546.8947737268638
 20
-195.4604425267713
 30
0.0
 10
541.4526521265205
 20
-200.7713933480631
 30
0.0
 10
536.088375120514
 20
-206.2799358063302
 30
0.0
 10
530.8099766485932
 20
-211.9777536292461
 30
0.0
 10
525.6253640074293
 20
-217.8562507075307
 30
0.0
 10
520.5423062762713
 20
-223.906563445043
 30
0.0
 10
515.5684228387044
 20
-230.1195735876505
 30
0.0
 10
510.7111720457417
 20
-236.4859215113052
 30
0.0
 10
505.977840060877
 20
-242.9960199461714
 30
0.0
 10
501.3755299236174
 20
-249.6400681111003
 30
0.0
 10
496.9111508643861
 20
-256.4080662309599
 30
0.0
 10
492.591407900556
 20
-263.2898304080782
 30
0.0
 10
488.4227917407288
 20
-270.2750078180012
 30
0.0
 10
484.4115696819927
 20
-277.3530910345916
 30
0.0
 10
480.5637765732168
 20
-284.5134327438175
 30
0.0
 10
476.8852043909379
 20
-291.7452638012992
 30
0.0
 10
473.3813930379989
 20
-299.0377107001495
 30
0.0
 10
470.0576218563884
 20
-306.3798130123298
 30
0.0
 10
466.9189029938531
 20
-313.7605377310185
 30
0.0
 10
463.9699740661235
 20
-321.1687958520797
 30
0.0
 10
461.215291279784
 20
-328.5934590159982
 30
0.0
 10
458.6590230285146
 20
-336.0233761707855
 30
0.0
 10
456.3050439729927
 20
-343.4473902147467
 30
0.0
 10
454.156929612089
 20
-350.8543545754358
 30
0.0
 10
452.2179513495532
 20
-358.2331496783009
 30
0.0
 10
450.4910720559186
 20
-365.5726992554323
 30
0.0
 10
448.9789421195853
 20
-372.8619864415526
 30
0.0
 10
447.6838959735306
 20
-380.0900696012523
 30
0.0
 10
446.6079490744992
 20
-387.2460978287342
 30
0.0
 10
445.7527952992314
 20
-394.3193260598286
 30
0.0
 10
445.1198047072805
 20
-401.2991297361722
 30
0.0
 10
444.710021600563
 20
-408.1750189662479
 30
0.0
 10
444.5241627908723
 20
-414.9366521332586
 30
0.0
 10
444.5626159505815
 20
-421.5738489306231
 30
0.0
 10
444.8254379375652
 20
-428.0766027812484
 30
0.0
 10
445.3123521257593
 20
-434.4350839696916
 30
0.0
 10
446.0227446910345
 20
-440.6396521791537
 30
0.0
 10
446.9556596412101
 20
-446.6808745622544
 30
0.0
 10
448.109800408947
 20
-452.5495404881675
 30
0.0
 10
449.4835112117016
 20
-458.2366906521445
 30
0.0
 10
451.0748269361891
 20
-463.7335578063748
 30
0.0
 10
452.8812598699229
 20
-469.0318358602231
 30
0.0
 10
454.9005694920361
 20
-474.1227508280643
 30
0.0
 10
457.1278674178895
 20
-479.0006140158463
 30
0.0
 10
459.5664014733146
 20
-483.6496692074222
 30
0.0
 10
462.0599676747051
 20
-487.8773335679374
 30
0.0
 10
463.8358274614546
 20
-490.4373397945191
 30
0.0
 10
464.6537035107359
 20
-491.6163561754039
 30
0.0
  0
LINE
  5
168
330
1F
100
AcDbEntity
  8
0
  6
Continuous
 62
     7
370
    25
100
AcDbLine
 10
718.9358940688
 20
-162.808691795
 30
0.0
 11
697.7226906332
 21
-150.5625701176
 31
0.0
  0
LINE
  5
169
330
1F
100
AcDbEntity
  8
0
  6
Continuous
 62
     7
370
    25
100
AcDbLine
 10
488.239716146
 20
-513.4370434551
 30
0.0
 11
509.4529195816
 21
-525.6831651325
 31
0.0
  0
SPLINE
  5
16A
330
1F
100
AcDbEntity
  8
0
  6
Continuous
 62
     7
370
    25
100
AcDbSpline
210
0.0
220
0.0
230
1.0
 70
     8
 71
     3
 72
    62
 73
    58
 74
     0
 42
0.00000001
 43
0.00000001
 40
0.0
 40
0.0
 40
0.0
 40
0.0
 40
0.0105350432049676
 40
0.0290957195132684
 40
0.0476657825065321
 40
0.0662445776392947
 40
0.0848311939885043
 40
0.1034245761081181
 40
0.1220236188092626
 40
0.1406272400266547
 40
0.1592344313695532
 40
0.1778442888204637
 40
0.1964560274536365
 40
0.215068984363423
 40
0.233682613634777
 40
0.252296449489097
 40
0.2709100791388349
 40
0.2895232652082245
 40
0.3081358353884681
 40
0.3267476711175755
 40
0.3453586976175756
 40
0.3639688753373038
 40
0.3825781927456993
 40
0.4011866603589526
 40
0.4197943058569473
 40
0.4384011701378597
 40
0.4570073041659332
 40
0.4756127664800114
 40
0.4942176212461719
 40
0.512821936753726
 40
0.5314257842693125
 40
0.5500292371773992
 40
0.5686323703474727
 40
0.5872352596781938
 40
0.605837981776997
 40
0.6244406137400278
 40
0.6430432330023362
 40
0.6616459042925016
 40
0.6802486924889384
 40
0.6988516755032738
 40
0.7174549312271484
 40
0.7360585373782186
 40
0.7546625712760043
 40
0.7732671095153483
 40
0.7918722275016091
 40
0.8104779988051585
 40
0.8290844942841171
 40
0.8476917809140707
 40
0.8662999202510803
 40
0.88490896644008
 40
0.9035189636649109
 40
0.9221299429193578
 40
0.9407419179620906
 40
0.9593548803047415
 40
0.9779687930750737
 40
0.9956038798445849
 40
1.0
 40
1.0
 40
1.0
 40
1.0
 10
540.8964404097757
 20
-535.2442520258686
 30
0.0
 10
541.8439612818631
 20
-535.3283915285019
 30
0.0
 10
544.4608277712407
 20
-535.5607683038959
 30
0.0
 10
548.8650639175863
 20
-535.6214474856772
 30
0.0
 10
554.0901042163646
 20
-535.4534590645275
 30
0.0
 10
559.4112614931424
 20
-534.9829242490181
 30
0.0
 10
564.8139778693238
 20
-534.227570121376
 30
0.0
 10
570.2916825448926
 20
-533.1839012172163
 30
0.0
 10
575.8355008216225
 20
-531.8547162515079
 30
0.0
 10
581.4370481151145
 20
-530.2417226653984
 30
0.0
 10
587.087711381235
 20
-528.347504477239
 30
0.0
 10
592.778867594242
 20
-526.1749800061756
 30
0.0
 10
598.5018467394419
 20
-523.7275315365549
 30
0.0
 10
604.2479597862084
 20
-521.0089549781738
 30
0.0
 10
610.0085038791003
 20
-518.0234599160426
 30
0.0
 10
615.7747696335138
 20
-514.7756591524972
 30
0.0
 10
621.5380605576696
 20
-511.2705551188889
 30
0.0
 10
627.2897053857886
 20
-507.5135275832479
 30
0.0
 10
633.021071720448
 20
-503.5103201735648
 30
0.0
 10
638.723565959314
 20
-499.2670371365525
 30
0.0
 10
644.3886436579803
 20
-494.7901343286977
 30
0.0
 10
650.0078202296629
 20
-490.0864099724311
 30
0.0
 10
655.5726819442075
 20
-485.162995080104
 30
0.0
 10
661.0748971751309
 20
-480.0273434692446
 30
0.0
 10
666.5062278331624
 20
-474.6872213200945
 30
0.0
 10
671.8585409223888
 20
-469.1506962463392
 30
0.0
 10
677.1238201563312
 20
-463.4261258662299
 30
0.0
 10
682.2941775748902
 20
-457.5221458735304
 30
0.0
 10
687.3618651077389
 20
-451.4476576169254
 30
0.0
 10
692.3192860347492
 20
-445.2118152032187
 30
0.0
 10
697.1590062989208
 20
-438.8240121444864
 30
0.0
 10
701.8737656318018
 20
-432.2938675727737
 30
0.0
 10
706.4564884554513
 20
-425.631212048335
 30
0.0
 10
710.9002945285227
 20
-418.8460729891236
 30
0.0
 10
715.1985093071428
 20
-411.9486597504171
 30
0.0
 10
719.3446739937833
 20
-404.9493483845548
 30
0.0
 10
723.3325543253316
 20
-397.8586677548234
 30
0.0
 10
727.1561501357081
 20
-390.6872838511932
 30
0.0
 10
730.8097054146242
 20
-383.4459821464654
 30
0.0
 10
734.2877176594047
 20
-376.1456496074072
 30
0.0
 10
737.5849458202974
 20
-368.7972582167934
 30
0.0
 10
740.6964171344923
 20
-361.4118501356832
 30
0.0
 10
743.6174343974473
 20
-354.0005211110788
 30
0.0
 10
746.3435827738851
 20
-346.5744038274013
 30
0.0
 10
748.8707361251712
 20
-339.1446512479586
 30
0.0
 10
751.1950628838988
 20
-331.7224199634954
 30
0.0
 10
753.3130313163101
 20
-324.3188536829151
 30
0.0
 10
755.2214147369399
 20
-316.9450665733282
 30
0.0
 10
756.9172945565448
 20
-309.6121277676428
 30
0.0
 10
758.398069082634
 20
-302.3310423598771
 30
0.0
 10
759.6614385561813
 20
-295.1127466102408
 30
0.0
 10
760.7054766696033
 20
-287.9680514851073
 30
0.0
 10
761.5283772235026
 20
-280.9077806801312
 30
0.0
 10
762.1294113874077
 20
-273.9421847010972
 30
0.0
 10
762.4987691036558
 20
-267.2033978165525
 30
0.0
 10
762.6182809619687
 20
-262.2903724578885
 30
0.0
 10
762.6248582638517
 20
-259.6602074907422
 30
0.0
 10
762.6261707025881
 20
-259.1353828062145
 30
0.0
  0
SPLINE
  5
16B
330
1F
100
AcDbEntity
  8
0
  6
Continuous
 62
     7
370
    25
100
AcDbSpline
210
0.0
220
0.0
230
1.0
 70
     8
 71
     3
 72
    22
 73
    18
 74
     0
 42
0.00000001
 43
0.00000001
 40
0.0
 40
0.0
 40
0.0
 40
0.0
 40
0.0385768784560587
 40
0.1118575748155191
 40
0.185143858078563
 40
0.2584304334933533
 40
0.3317154387331207
 40
0.4049968184068314
 40
0.4782720511684749
 40
0.5515381200274658
 40
0.6247915100275112
 40
0.6980282479645452
 40
0.7712440009271458
 40
0.8444342502924891
 40
0.9175945537817667
 40
0.9907208986161334
 40
0.9999999999999999
 40
0.9999999999999999
 40
0.9999999999999999
 40
0.9999999999999999
 10
762.6261707025881
 20
-259.1353828062145
 30
0.0
 10
762.6199168957795
 20
-257.970716277029
 30
0.0
 10
762.6017833481476
 20
-254.5936474565983
 30
0.0
 10
762.400307610613
 20
-249.104760399828
 30
0.0
 10
761.9482833130942
 20
-242.7235265097093
 30
0.0
 10
761.2696182623861
 20
-236.4963958602591
 30
0.0
 10
760.3690856297799
 20
-230.4308040692513
 30
0.0
 10
759.2469026319131
 20
-224.5365642548927
 30
0.0
 10
757.9049330472507
 20
-218.8225390167511
 30
0.0
 10
756.3450845935738
 20
-213.2974888346481
 30
0.0
 10
754.5695571050504
 20
-207.9700630644965
 30
0.0
 10
752.5814854644428
 20
-202.8479035961259
 30
0.0
 10
750.3821515960939
 20
-197.9411329995978
 30
0.0
 10
747.9815123522346
 20
-193.2491815412148
 30
0.0
 10
745.3589038499997
 20
-188.8098247442545
 30
0.0
 10
743.4092877186399
 20
-185.7650610495175
 30
0.0
 10
742.278376811395
 20
-184.2738689674646
 30
0.0
 10
742.1510328378346
 20
-184.1059562487404
 30
0.0
  0
SPLINE
  5
16C
330
1F
100
AcDbEntity
  8
0
  6
Continuous
 62
     7
370
    25
100
AcDbSpline
210
0.0
220
0.0
230
1.0
 70
     8
 71
     3
 72
    20
 73
    16
 74
     0
 42
0.00000001
 43
0.00000001
 40
0.0
 40
0.0
 40
0.0
 40
0.0
 40
0.0166481805296819
 40
0.1006799056749119
 40
0.1846321499966002
 40
0.2685091542500347
 40
0.3523191308301183
 40
0.4360724399212131
 40
0.5197800917983659
 40
0.6034526824983636
 40
0.6870997445736723
 40
0.7707294317614648
 40
0.854348439875701
 40
0.9379620757859232
 40
1.0
 40
1.0
 40
1.0
 40
1.0
 10
679.0992747482751
 20
-219.6600656071051
 30
0.0
 10
679.2697301873117
 20
-219.8642213205613
 30
0.0
 10
680.3005598021982
 20
-221.0988534136679
 30
0.0
 10
682.0089969723269
 20
-223.6053573596333
 30
0.0
 10
684.2074821885908
 20
-227.18261838469
 30
0.0
 10
686.1901370343053
 20
-231.0105647409931
 30
0.0
 10
687.9735015575968
 20
-235.053125758641
 30
0.0
 10
689.5483688661433
 20
-239.3090242021091
 30
0.0
 10
690.9128864237143
 20
-243.7671863845011
 30
0.0
 10
692.0638266973317
 20
-248.4185744510814
 30
0.0
 10
692.9984347359061
 20
-253.2532940256615
 30
0.0
 10
693.7158203486564
 20
-258.26028562741
 30
0.0
 10
694.2096479794709
 20
-263.4314485715141
 30
0.0
 10
694.4714595983301
 20
-268.2884696799783
 30
0.0
 10
694.4996706295714
 20
-271.4595488433348
 30
0.0
 10
694.5116866616459
 20
-272.810218679245
 30
0.0
  0
SPLINE
  5
16D
330
1F
100
AcDbEntity
  8
0
  6
Continuous
 62
     7
370
    25
100
AcDbSpline
210
0.0
220
0.0
230
1.0
 70
     8
 71
     3
 72
    53
 73
    49
 74
     0
 42
0.00000001
 43
0.00000001
 40
0.0
 40
0.0
 40
0.0
 40
0.0
 40
0.0115887835904758
 40
0.033627706263254
 40
0.0556693587949725
 40
0.0777123808725104
 40
0.0997570119170762
 40
0.1218033764404844
 40
0.1438515110809923
 40
0.1659013864822272
 40
0.187952924454852
 40
0.2100060112210082
 40
0.2320605074816735
 40
0.2541162559530584
 40
0.2761730869159472
 40
0.2982308222250438
 40
0.3202892781401248
 40
0.3423482672696737
 40
0.3644075998604425
 40
0.3864670846221426
 40
0.4085265156913308
 40
0.4305856494721537
 40
0.4526442927101168
 40
0.4747022522912362
 40
0.4967593358778882
 40
0.5188153529354066
 40
0.5408701163131644
 40
0.5629234445920497
 40
0.584975165461666
 40
0.6070251204560061
 40
0.629073171456354
 40
0.6511192094639803
 40
0.6731631662493127
 40
0.6952050295892559
 40
0.7172448628918862
 40
0.7392828300447349
 40
0.7613192262527938
 40
0.783354515366025
 40
0.805389372943357
 40
0.8274243963195026
 40
0.8494607275331314
 40
0.8714998537076759
 40
0.8935436462906772
 40
0.9155943768873266
 40
0.9376546906966038
 40
0.9597275135959564
 40
0.9818158671876762
 40
0.9999999999999999
 40
0.9999999999999999
 40
0.9999999999999999
 40
0.9999999999999999
 10
694.5116866616459
 20
-272.810218679245
 30
0.0
 10
694.5055107056797
 20
-273.7759733663562
 30
0.0
 10
694.4875896502471
 20
-276.5783481528891
 30
0.0
 10
694.2883219210396
 20
-281.3135290976792
 30
0.0
 10
693.8411166309235
 20
-287.0426740081303
 30
0.0
 10
693.1699530734408
 20
-292.8730185907244
 30
0.0
 10
692.2799991842464
 20
-298.7892928020307
 30
0.0
 10
691.1720642564412
 20
-304.7791038531077
 30
0.0
 10
689.8487465866469
 20
-310.8290983056657
 30
0.0
 10
688.3127836472166
 20
-316.9259917958104
 30
0.0
 10
686.5674865208829
 20
-323.0563344677319
 30
0.0
 10
684.6166139826208
 20
-329.206614689868
 30
0.0
 10
682.4643951665469
 20
-335.3632715947025
 30
0.0
 10
680.1155110127797
 20
-341.5127315526228
 30
0.0
 10
677.5750854911001
 20
-347.6414377585717
 30
0.0
 10
674.8486730355052
 20
-353.7358812112407
 30
0.0
 10
671.9422459015966
 20
-359.7826308768854
 30
0.0
 10
668.8621805122175
 20
-365.7683636298222
 30
0.0
 10
665.6152430906893
 20
-371.6798938014252
 30
0.0
 10
662.2085752405696
 20
-377.5042011718658
 30
0.0
 10
658.6496802876358
 20
-383.2284566654355
 30
0.0
 10
654.9464045236825
 20
-388.8400555265281
 30
0.0
 10
651.1069190935625
 20
-394.3266465031963
 30
0.0
 10
647.1396996202642
 20
-399.6761621420889
 30
0.0
 10
643.0535104708044
 20
-404.8768413701325
 30
0.0
 10
638.8573856826991
 20
-409.9172559299274
 30
0.0
 10
634.5606092745221
 20
-414.7863362673035
 30
0.0
 10
630.1726949364166
 20
-419.4733968425003
 30
0.0
 10
625.7033650832778
 20
-423.9681608371696
 30
0.0
 10
621.162529237853
 20
-428.2607842256487
 30
0.0
 10
616.5602616914123
 20
-432.3418791714681
 30
0.0
 10
611.9067783662796
 20
-436.2025366955942
 30
0.0
 10
607.2124127770496
 20
-439.8343485404694
 30
0.0
 10
602.4875909606268
 20
-443.2294281119537
 30
0.0
 10
597.7428052111808
 20
-446.3804303428391
 30
0.0
 10
592.9885864653629
 20
-449.280570176819
 30
0.0
 10
588.2354750831502
 20
-451.9236395049614
 30
0.0
 10
583.493990236669
 20
-454.3040213180549
 30
0.0
 10
578.774620898141
 20
-456.4166922772733
 30
0.0
 10
574.0877769463249
 20
-458.257238742739
 30
0.0
 10
569.4437442786352
 20
-459.8218855044465
 30
0.0
 10
564.8526615378282
 20
-461.1074146936974
 30
0.0
 10
560.3243691651467
 20
-462.1114701859287
 30
0.0
 10
555.8688749957709
 20
-462.8313454163969
 30
0.0
 10
551.4944703150649
 20
-463.2684280216707
 30
0.0
 10
547.2146559508866
 20
-463.4114854567187
 30
0.0
 10
543.2703774562757
 20
-463.3056231922603
 30
0.0
 10
540.8109423431195
 20
-463.015767147827
 30
0.0
 10
539.700439895065
 20
-462.8848891892239
 30
0.0
  0
SPLINE
  5
16E
330
1F
100
AcDbEntity
  8
0
  6
Continuous
 62
     7
370
    25
100
AcDbSpline
210
0.0
220
0.0
230
1.0
 70
     8
 71
     3
 72
    13
 73
     9
 74
     0
 42
0.00000001
 43
0.00000001
 40
0.0
 40
0.0
 40
0.0
 40
0.0
 40
0.0884811926552228
 40
0.3131877944236593
 40
0.5300342937928259
 40
0.7392297751211984
 40
0.9449828409041224
 40
1.0
 40
1.0
 40
1.0
 40
1.0
 10
708.3666987353918
 20
-330.6209508984238
 30
0.0
 10
708.4885075752226
 20
-330.6918432812289
 30
0.0
 10
708.919661821035
 20
-330.9427737710413
 30
0.0
 10
709.4945534436663
 20
-331.6500120556681
 30
0.0
 10
710.073316384587
 20
-332.7378078112634
 30
0.0
 10
710.4400966105065
 20
-334.0580969558549
 30
0.0
 10
710.5677674434827
 20
-335.1883224726843
 30
0.0
 10
710.5752310042483
 20
-335.8619073696025
 30
0.0
 10
710.5768056622071
 20
-336.0040199419085
 30
0.0
  0
SPLINE
  5
16F
330
1F
100
AcDbEntity
  8
0
  6
Continuous
 62
     7
370
    25
100
AcDbSpline
210
0.0
220
0.0
230
1.0
 70
     8
 71
     3
 72
    23
 73
    19
 74
     0
 42
0.00000001
 43
0.00000001
 40
0.0
 40
0.0
 40
0.0
 40
0.0
 40
0.0335894183173933
 40
0.0980090686472639
 40
0.1626136377275733
 40
0.227377298980583
 40
0.2922707044179139
 40
0.357239738751905
 40
0.42222206552424
 40
0.4871348730787286
 40
0.5519085973445502
 40
0.6164811775628294
 40
0.6808078259984836
 40
0.744896457429144
 40
0.8088825689857817
 40
0.873022383188417
 40
0.9380494480027535
 40
1.0
 40
1.0
 40
1.0
 40
1.0
 10
710.5768056622071
 20
-336.0040199419085
 30
0.0
 10
710.5710788514131
 20
-336.2857507546889
 30
0.0
 10
710.5543688450966
 20
-337.1078005534957
 30
0.0
 10
710.3657638731269
 20
-338.5689103210774
 30
0.0
 10
709.9411409902892
 20
-340.3789952616724
 30
0.0
 10
709.3102331571841
 20
-342.2267833211789
 30
0.0
 10
708.4902924042586
 20
-344.0628592012437
 30
0.0
 10
707.4996405667588
 20
-345.8416742369477
 30
0.0
 10
706.3631299178866
 20
-347.5180457740456
 30
0.0
 10
705.1099253206378
 20
-349.0498668450248
 30
0.0
 10
703.7731947453123
 20
-350.399148701336
 30
0.0
 10
702.3891239647363
 20
-351.5334384022826
 30
0.0
 10
700.9959441699231
 20
-352.4272729278437
 30
0.0
 10
699.6329490104991
 20
-353.062907239469
 30
0.0
 10
698.3373021064878
 20
-353.4342666978416
 30
0.0
 10
697.1453922702418
 20
-353.5373128134166
 30
0.0
 10
696.0905162206643
 20
-353.4106146105533
 30
0.0
 10
695.510176815371
 20
-353.1304520055249
 30
0.0
 10
695.2270375707825
 20
-352.9937647021536
 30
0.0
  0
SPLINE
  5
170
330
1F
100
AcDbEntity
  8
0
  6
Continuous
 62
     7
370
    25
100
AcDbSpline
210
0.0
220
0.0
230
1.0
 70
     8
 71
     3
 72
    13
 73
     9
 74
     0
 42
0.00000001
 43
0.00000001
 40
0.0
 40
0.0
 40
0.0
 40
0.0
 40
0.0884811926551858
 40
0.3131877944236329
 40
0.5300342937927901
 40
0.739229775121163
 40
0.9449828409040641
 40
1.0
 40
1.0
 40
1.0
 40
1.0
 10
662.4263182296892
 20
-410.1920238198096
 30
0.0
 10
662.5481270695199
 20
-410.2629162026147
 30
0.0
 10
662.9792813153323
 20
-410.5138466924271
 30
0.0
 10
663.5541729379637
 20
-411.2210849770538
 30
0.0
 10
664.1329358788844
 20
-412.308880732649
 30
0.0
 10
664.4997161048038
 20
-413.6291698772404
 30
0.0
 10
664.6273869377802
 20
-414.7593953940699
 30
0.0
 10
664.6348504985458
 20
-415.4329802909883
 30
0.0
 10
664.6364251565046
 20
-415.5750928632943
 30
0.0
  0
SPLINE
  5
171
330
1F
100
AcDbEntity
  8
0
  6
Continuous
 62
     7
370
    25
100
AcDbSpline
210
0.0
220
0.0
230
1.0
 70
     8
 71
     3
 72
    23
 73
    19
 74
     0
 42
0.00000001
 43
0.00000001
 40
0.0
 40
0.0
 40
0.0
 40
0.0
 40
0.0335894183173932
 40
0.0980090686472632
 40
0.1626136377275717
 40
0.2273772989805848
 40
0.2922707044179089
 40
0.3572397387519071
 40
0.4222220655242487
 40
0.4871348730787419
 40
0.5519085973445592
 40
0.6164811775628396
 40
0.6808078259984965
 40
0.7448964574291581
 40
0.8088825689857901
 40
0.8730223831884231
 40
0.9380494480027617
 40
1.0
 40
1.0
 40
1.0
 40
1.0
 10
664.6364251565046
 20
-415.5750928632943
 30
0.0
 10
664.6306983457106
 20
-415.8568236760748
 30
0.0
 10
664.6139883393942
 20
-416.6788734748815
 30
0.0
 10
664.4253833674244
 20
-418.1399832424632
 30
0.0
 10
664.0007604845867
 20
-419.9500681830584
 30
0.0
 10
663.3698526514817
 20
-421.7978562425647
 30
0.0
 10
662.5499118985562
 20
-423.6339321226297
 30
0.0
 10
661.5592600610562
 20
-425.4127471583337
 30
0.0
 10
660.4227494121839
 20
-427.0891186954316
 30
0.0
 10
659.1695448149351
 20
-428.6209397664109
 30
0.0
 10
657.8328142396095
 20
-429.9702216227221
 30
0.0
 10
656.4487434590335
 20
-431.1045113236687
 30
0.0
 10
655.0555636642202
 20
-431.9983458492297
 30
0.0
 10
653.6925685047964
 20
-432.6339801608549
 30
0.0
 10
652.396921600785
 20
-433.0053396192275
 30
0.0
 10
651.2050117645391
 20
-433.1083857348026
 30
0.0
 10
650.1501357149616
 20
-432.9816875319391
 30
0.0
 10
649.5697963096684
 20
-432.7015249269108
 30
0.0
 10
649.28665706508
 20
-432.5648376235394
 30
0.0
  0
SPLINE
  5
172
330
1F
100
AcDbEntity
  8
0
  6
Continuous
 62
     7
370
    25
100
AcDbSpline
210
0.0
220
0.0
230
1.0
 70
     8
 71
     3
 72
    66
 73
    62
 74
     0
 42
0.00000001
 43
0.00000001
 40
0.0
 40
0.0
 40
0.0
 40
0.0
 40
0.0031512848993262
 40
0.020620634973945
 40
0.0380735154344313
 40
0.0555109416170288
 40
0.0729347016931547
 40
0.0903469839600358
 40
0.1077500769227371
 40
0.1251461601814703
 40
0.1425371798655906
 40
0.1599247908154264
 40
0.1773103452367129
 40
0.1946949099877774
 40
0.212079235812576
 40
0.2294638060080628
 40
0.2468490981909027
 40
0.2642354367680852
 40
0.2816230249125781
 40
0.2990119716446893
 40
0.3164023140485393
 40
0.3337940350752194
 40
0.3511870775399263
 40
0.3685813549467463
 40
0.3859767597333335
 40
0.4033731694557849
 40
0.4207704513534034
 40
0.4381684656557116
 40
0.4555670679254796
 40
0.4729661106739065
 40
0.4903654444374749
 40
0.5077649184698626
 40
0.5251643772601773
 40
0.5425636219498591
 40
0.5599625001211166
 40
0.5773608594165782
 40
0.5947585480084014
 40
0.6121554153603953
 40
0.6295513134076579
 40
0.6469460983162295
 40
0.6643396330243999
 40
0.6817317908174356
 40
0.6991224602489633
 40
0.7165115517950242
 40
0.7338990067080299
 40
0.751284808621219
 40
0.7686689985264287
 40
0.7860516937844879
 40
0.8034331117870152
 40
0.8208135987043561
 40
0.8381936633263386
 40
0.8555737864742056
 40
0.872954805679455
 40
0.890337855434701
 40
0.9077243700237402
 40
0.9251160992496859
 40
0.9425150929806483
 40
0.9599236360533869
 40
0.9773441131989016
 40
0.9947787871925311
 40
1.0
 40
1.0
 40
1.0
 40
1.0
 10
527.6967117318884
 20
-456.1013131376592
 30
0.0
 10
527.5430778103436
 20
-455.9133546154941
 30
0.0
 10
526.537764385186
 20
-454.6834359633789
 30
0.0
 10
524.8630893454238
 20
-452.172559401779
 30
0.0
 10
522.6906061055896
 20
-448.5646786883882
 30
0.0
 10
520.7350942014741
 20
-444.7066148931568
 30
0.0
 10
518.9792357267669
 20
-440.6352368092341
 30
0.0
 10
517.4323849232159
 20
-436.3516701560868
 30
0.0
 10
516.0962673704583
 20
-431.867111187706
 30
0.0
 10
514.9741621505583
 20
-427.1905882857235
 30
0.0
 10
514.0684311417887
 20
-422.3322511985133
 30
0.0
 10
513.3811588616596
 20
-417.3024911705385
 30
0.0
 10
512.913956403015
 20
-412.1121647347131
 30
0.0
 10
512.667990420578
 20
-406.7725178044975
 30
0.0
 10
512.6439534838703
 20
-401.2951837122126
 30
0.0
 10
512.8420534840067
 20
-395.6921324238652
 30
0.0
 10
513.2620066601228
 20
-389.9756330318868
 30
0.0
 10
513.903036480257
 20
-384.1582142925184
 30
0.0
 10
514.7638712961616
 20
-378.2526507582035
 30
0.0
 10
515.842744694101
 20
-372.2719292951576
 30
0.0
 10
517.1373981154053
 20
-366.2292157601921
 30
0.0
 10
518.6450854178269
 20
-360.1378219892569
 30
0.0
 10
520.3625790759592
 20
-354.0111731875967
 30
0.0
 10
522.2861777901021
 20
-347.8627757405411
 30
0.0
 10
524.4117153240418
 20
-341.7061854370466
 30
0.0
 10
526.7345704364873
 20
-335.554976085607
 30
0.0
 10
529.2496778044047
 20
-329.4227085016668
 30
0.0
 10
531.9515398615462
 20
-323.3228998507741
 30
0.0
 10
534.8342394934468
 20
-317.2689933394568
 30
0.0
 10
537.891453542617
 20
-311.2743282542218
 30
0.0
 10
541.116467086268
 20
-305.3521103566854
 30
0.0
 10
544.5021882000311
 20
-299.5153830880715
 30
0.0
 10
548.0411607249238
 20
-293.7770033879517
 30
0.0
 10
551.7255832724674
 20
-288.1496076720159
 30
0.0
 10
555.5473267276749
 20
-282.6455832652109
 30
0.0
 10
559.4979555189019
 20
-277.2770365846507
 30
0.0
 10
563.5687428250058
 20
-272.0557712447123
 30
0.0
 10
567.7506895662891
 20
-266.9932615504515
 30
0.0
 10
572.0345440115885
 20
-262.100626534964
 30
0.0
 10
576.410822004078
 20
-257.3886045695243
 30
0.0
 10
580.86982782129
 20
-252.8675285740188
 30
0.0
 10
585.4016756997901
 20
-248.5473018585431
 30
0.0
 10
589.9963120739695
 20
-244.4373746339739
 30
0.0
 10
594.6435386014807
 20
-240.5467212422083
 30
0.0
 10
599.3330360740324
 20
-236.8838181798
 30
0.0
 10
604.0543893422033
 20
-233.4566230207582
 30
0.0
 10
608.7971134051344
 20
-230.2725544091864
 30
0.0
 10
613.5506808546946
 20
-227.3384733244182
 30
0.0
 10
618.3045507945329
 20
-224.6606660917676
 30
0.0
 10
623.0481995853202
 20
-222.2448291310939
 30
0.0
 10
627.7711319715955
 20
-220.0960673326554
 30
0.0
 10
632.4629279570855
 20
-218.2188705340812
 30
0.0
 10
637.1132737520064
 20
-216.6171212322464
 30
0.0
 10
641.7120429508731
 20
-215.2940305651412
 30
0.0
 10
646.2492250967636
 20
-214.2523716248403
 30
0.0
 10
650.715311551221
 20
-213.493673871191
 30
0.0
 10
655.0999935095963
 20
-213.0213120273789
 30
0.0
 10
659.3971401183469
 20
-212.8290812237735
 30
0.0
 10
663.5862667496384
 20
-212.944008163456
 30
0.0
 10
666.7395292767419
 20
-213.1911343295883
 30
0.0
 10
668.4527459370385
 20
-213.4934105458081
 30
0.0
 10
668.8475690948004
 20
-213.5630722838534
 30
0.0
  0
SPLINE
  5
173
330
1F
100
AcDbEntity
  8
0
  6
Continuous
 62
     7
370
    25
100
AcDbSpline
210
0.0
220
0.0
230
1.0
 70
     8
 71
     3
 72
    13
 73
     9
 74
     0
 42
0.00000001
 43
0.00000001
 40
0.0
 40
0.0
 40
0.0
 40
0.0
 40
0.0884811926552064
 40
0.3131877944236404
 40
0.5300342937928101
 40
0.7392297751211676
 40
0.9449828409040778
 40
1.0
 40
1.0
 40
1.0
 40
1.0
 10
725.182045060005
 20
-248.4456610358986
 30
0.0
 10
725.3038538998355
 20
-248.5165534187037
 30
0.0
 10
725.735008145648
 20
-248.7674839085161
 30
0.0
 10
726.3098997682794
 20
-249.4747221931428
 30
0.0
 10
726.8886627091998
 20
-250.5625179487381
 30
0.0
 10
727.2554429351196
 20
-251.8828070933294
 30
0.0
 10
727.3831137680959
 20
-253.0130326101588
 30
0.0
 10
727.3905773288614
 20
-253.6866175070772
 30
0.0
 10
727.3921519868203
 20
-253.8287300793833
 30
0.0
  0
SPLINE
  5
174
330
1F
100
AcDbEntity
  8
0
  6
Continuous
 62
     7
370
    25
100
AcDbSpline
210
0.0
220
0.0
230
1.0
 70
     8
 71
     3
 72
    23
 73
    19
 74
     0
 42
0.00000001
 43
0.00000001
 40
0.0
 40
0.0
 40
0.0
 40
0.0
 40
0.0335894183173929
 40
0.0980090686472637
 40
0.162613637727573
 40
0.227377298980583
 40
0.2922707044179138
 40
0.3572397387519057
 40
0.4222220655242416
 40
0.4871348730787358
 40
0.5519085973445526
 40
0.6164811775628357
 40
0.6808078259984893
 40
0.7448964574291516
 40
0.8088825689857884
 40
0.873022383188425
 40
0.9380494480027629
 40
0.9999999999999999
 40
0.9999999999999999
 40
0.9999999999999999
 40
0.9999999999999999
 10
727.3921519868203
 20
-253.8287300793833
 30
0.0
 10
727.3864251760261
 20
-254.1104608921637
 30
0.0
 10
727.3697151697097
 20
-254.9325106909704
 30
0.0
 10
727.18111019774
 20
-256.3936204585521
 30
0.0
 10
726.7564873149024
 20
-258.2037053991473
 30
0.0
 10
726.1255794817971
 20
-260.0514934586537
 30
0.0
 10
725.3056387288717
 20
-261.8875693387186
 30
0.0
 10
724.3149868913717
 20
-263.6663843744226
 30
0.0
 10
723.1784762424995
 20
-265.3427559115204
 30
0.0
 10
721.9252716452507
 20
-266.8745769824997
 30
0.0
 10
720.5885410699253
 20
-268.2238588388109
 30
0.0
 10
719.204470289349
 20
-269.3581485397576
 30
0.0
 10
717.8112904945359
 20
-270.2519830653185
 30
0.0
 10
716.448295335112
 20
-270.8876173769439
 30
0.0
 10
715.1526484311006
 20
-271.2589768353164
 30
0.0
 10
713.9607385948547
 20
-271.3620229508915
 30
0.0
 10
712.9058625452772
 20
-271.2353247480279
 30
0.0
 10
712.3255231399839
 20
-270.9551621429997
 30
0.0
 10
712.0423838953956
 20
-270.8184748396283
 30
0.0
  0
SPLINE
  5
175
330
1F
100
AcDbEntity
  8
0
  6
Continuous
 62
     7
370
    25
100
AcDbSpline
210
0.0
220
0.0
230
1.0
 70
     8
 71
     3
 72
    13
 73
     9
 74
     0
 42
0.00000001
 43
0.00000001
 40
0.0
 40
0.0
 40
0.0
 40
0.0
 40
0.0884811926552059
 40
0.3131877944236405
 40
0.5300342937928068
 40
0.7392297751211822
 40
0.9449828409040866
 40
1.0
 40
1.0
 40
1.0
 40
1.0
 10
599.6705913993788
 20
-465.8378750698928
 30
0.0
 10
599.7924002392093
 20
-465.9087674526979
 30
0.0
 10
600.2235544850219
 20
-466.1596979425103
 30
0.0
 10
600.7984461076533
 20
-466.866936227137
 30
0.0
 10
601.3772090485738
 20
-467.9547319827324
 30
0.0
 10
601.7439892744935
 20
-469.2750211273238
 30
0.0
 10
601.8716601074698
 20
-470.4052466441532
 30
0.0
 10
601.8791236682353
 20
-471.0788315410716
 30
0.0
 10
601.8806983261942
 20
-471.2209441133776
 30
0.0
  0
SPLINE
  5
176
330
1F
100
AcDbEntity
  8
0
  6
Continuous
 62
     7
370
    25
100
AcDbSpline
210
0.0
220
0.0
230
1.0
 70
     8
 71
     3
 72
    23
 73
    19
 74
     0
 42
0.00000001
 43
0.00000001
 40
0.0
 40
0.0
 40
0.0
 40
0.0
 40
0.0335894183173931
 40
0.0980090686472694
 40
0.1626136377275771
 40
0.2273772989805912
 40
0.2922707044179191
 40
0.3572397387519185
 40
0.4222220655242492
 40
0.4871348730787394
 40
0.5519085973445612
 40
0.61648117756284
 40
0.6808078259984957
 40
0.7448964574291608
 40
0.8088825689857913
 40
0.8730223831884282
 40
0.9380494480027652
 40
0.9999999999999999
 40
0.9999999999999999
 40
0.9999999999999999
 40
0.9999999999999999
 10
601.8806983261942
 20
-471.2209441133776
 30
0.0
 10
601.8749715154
 20
-471.502674926158
 30
0.0
 10
601.8582615090836
 20
-472.3247247249649
 30
0.0
 10
601.669656537114
 20
-473.7858344925465
 30
0.0
 10
601.2450336542763
 20
-475.5959194331417
 30
0.0
 10
600.614125821171
 20
-477.4437074926482
 30
0.0
 10
599.7941850682456
 20
-479.2797833727131
 30
0.0
 10
598.8035332307455
 20
-481.0585984084171
 30
0.0
 10
597.6670225818733
 20
-482.7349699455149
 30
0.0
 10
596.4138179846245
 20
-484.2667910164941
 30
0.0
 10
595.0770874092991
 20
-485.6160728728053
 30
0.0
 10
593.693016628723
 20
-486.7503625737519
 30
0.0
 10
592.2998368339097
 20
-487.6441970993129
 30
0.0
 10
590.9368416744858
 20
-488.2798314109382
 30
0.0
 10
589.6411947704744
 20
-488.6511908693107
 30
0.0
 10
588.4492849342286
 20
-488.7542369848857
 30
0.0
 10
587.394408884651
 20
-488.6275387820223
 30
0.0
 10
586.8140694793578
 20
-488.3473761769939
 30
0.0
 10
586.5309302347696
 20
-488.2106888736226
 30
0.0
  0
SPLINE
  5
177
330
1F
100
AcDbEntity
  8
0
  6
Continuous
 62
     7
370
    25
100
AcDbSpline
210
0.0
220
0.0
230
1.0
 70
     8
 71
     3
 72
    13
 73
     9
 74
     0
 42
0.00000001
 43
0.00000001
 40
0.0
 40
0.0
 40
0.0
 40
0.0
 40
0.0884811926552378
 40
0.3131877944236954
 40
0.5300342937928463
 40
0.7392297751212277
 40
0.9449828409041261
 40
1.0
 40
1.0
 40
1.0
 40
1.0
 10
708.3666987353989
 20
-185.684956788691
 30
0.0
 10
708.4885075752295
 20
-185.7558491714962
 30
0.0
 10
708.919661821042
 20
-186.0067796613086
 30
0.0
 10
709.4945534436736
 20
-186.7140179459355
 30
0.0
 10
710.073316384594
 20
-187.8018137015308
 30
0.0
 10
710.4400966105136
 20
-189.1221028461222
 30
0.0
 10
710.5677674434899
 20
-190.2523283629515
 30
0.0
 10
710.5752310042552
 20
-190.9259132598697
 30
0.0
 10
710.5768056622142
 20
-191.0680258321757
 30
0.0
  0
SPLINE
  5
178
330
1F
100
AcDbEntity
  8
0
  6
Continuous
 62
     7
370
    25
100
AcDbSpline
210
0.0
220
0.0
230
1.0
 70
     8
 71
     3
 72
    23
 73
    19
 74
     0
 42
0.00000001
 43
0.00000001
 40
0.0
 40
0.0
 40
0.0
 40
0.0
 40
0.033589418317393
 40
0.0980090686472631
 40
0.1626136377275719
 40
0.227377298980581
 40
0.2922707044179125
 40
0.3572397387519099
 40
0.4222220655242448
 40
0.4871348730787393
 40
0.5519085973445604
 40
0.6164811775628414
 40
0.6808078259984949
 40
0.7448964574291597
 40
0.808882568985795
 40
0.8730223831884291
 40
0.9380494480027661
 40
1.0
 40
1.0
 40
1.0
 40
1.0
 10
710.5768056622142
 20
-191.0680258321757
 30
0.0
 10
710.5710788514201
 20
-191.3497566449561
 30
0.0
 10
710.5543688451036
 20
-192.1718064437628
 30
0.0
 10
710.3657638731339
 20
-193.6329162113446
 30
0.0
 10
709.9411409902964
 20
-195.4430011519396
 30
0.0
 10
709.3102331571911
 20
-197.2907892114462
 30
0.0
 10
708.4902924042657
 20
-199.1268650915111
 30
0.0
 10
707.4996405667656
 20
-200.905680127215
 30
0.0
 10
706.3631299178934
 20
-202.582051664313
 30
0.0
 10
705.1099253206445
 20
-204.1138727352923
 30
0.0
 10
703.7731947453191
 20
-205.4631545916035
 30
0.0
 10
702.3891239647429
 20
-206.5974442925501
 30
0.0
 10
700.9959441699298
 20
-207.4912788181111
 30
0.0
 10
699.6329490105057
 20
-208.1269131297364
 30
0.0
 10
698.3373021064943
 20
-208.4982725881088
 30
0.0
 10
697.1453922702485
 20
-208.6013187036839
 30
0.0
 10
696.0905162206711
 20
-208.4746205008204
 30
0.0
 10
695.5101768153778
 20
-208.1944578957921
 30
0.0
 10
695.2270375707895
 20
-208.0577705924208
 30
0.0
  0
SPLINE
  5
179
330
1F
100
AcDbEntity
  8
0
  6
Continuous
 62
     7
370
    25
100
AcDbSpline
210
0.0
220
0.0
230
1.0
 70
     8
 71
     3
 72
    13
 73
     9
 74
     0
 42
0.00000001
 43
0.00000001
 40
0.0
 40
0.0
 40
0.0
 40
0.0
 40
0.0884811926551849
 40
0.3131877944236322
 40
0.5300342937927895
 40
0.7392297751211626
 40
0.944982840904064
 40
1.0
 40
1.0
 40
1.0
 40
1.0
 10
536.9148645690702
 20
-482.6482437440711
 30
0.0
 10
537.0366734089008
 20
-482.7191361268762
 30
0.0
 10
537.4678276547131
 20
-482.9700666166887
 30
0.0
 10
538.0427192773448
 20
-483.6773049013153
 30
0.0
 10
538.6214822182652
 20
-484.7651006569106
 30
0.0
 10
538.9882624441849
 20
-486.0853898015019
 30
0.0
 10
539.1159332771612
 20
-487.2156153183315
 30
0.0
 10
539.1233968379267
 20
-487.8892002152497
 30
0.0
 10
539.1249714958857
 20
-488.0313127875559
 30
0.0
  0
SPLINE
  5
17A
330
1F
100
AcDbEntity
  8
0
  6
Continuous
 62
     7
370
    25
100
AcDbSpline
210
0.0
220
0.0
230
1.0
 70
     8
 71
     3
 72
    23
 73
    19
 74
     0
 42
0.00000001
 43
0.00000001
 40
0.0
 40
0.0
 40
0.0
 40
0.0
 40
0.0335894183173931
 40
0.0980090686472632
 40
0.1626136377275717
 40
0.2273772989805847
 40
0.2922707044179088
 40
0.3572397387519069
 40
0.4222220655242485
 40
0.4871348730787416
 40
0.551908597344559
 40
0.6164811775628393
 40
0.6808078259984962
 40
0.7448964574291578
 40
0.8088825689857898
 40
0.8730223831884227
 40
0.9380494480027612
 40
0.9999999999999999
 40
0.9999999999999999
 40
0.9999999999999999
 40
0.9999999999999999
 10
539.1249714958857
 20
-488.0313127875559
 30
0.0
 10
539.1192446850915
 20
-488.3130436003364
 30
0.0
 10
539.102534678775
 20
-489.135093399143
 30
0.0
 10
538.9139297068054
 20
-490.5962031667247
 30
0.0
 10
538.4893068239678
 20
-492.4062881073199
 30
0.0
 10
537.8583989908625
 20
-494.2540761668263
 30
0.0
 10
537.0384582379371
 20
-496.0901520468911
 30
0.0
 10
536.0478064004371
 20
-497.8689670825952
 30
0.0
 10
534.9112957515648
 20
-499.5453386196932
 30
0.0
 10
533.658091154316
 20
-501.0771596906724
 30
0.0
 10
532.3213605789905
 20
-502.4264415469837
 30
0.0
 10
530.9372897984144
 20
-503.5607312479302
 30
0.0
 10
529.5441100036011
 20
-504.4545657734914
 30
0.0
 10
528.1811148441773
 20
-505.0902000851165
 30
0.0
 10
526.885467940166
 20
-505.461559543489
 30
0.0
 10
525.6935581039202
 20
-505.564605659064
 30
0.0
 10
524.6386820543426
 20
-505.4379074562005
 30
0.0
 10
524.0583426490493
 20
-505.1577448511723
 30
0.0
 10
523.775203404461
 20
-505.0210575478009
 30
0.0
  0
SPLINE
  5
17B
330
1F
100
AcDbEntity
  8
0
  6
Continuous
 62
     7
370
    25
100
AcDbSpline
210
0.0
220
0.0
230
1.0
 70
     8
 71
     3
 72
    13
 73
     9
 74
     0
 42
0.00000001
 43
0.00000001
 40
0.0
 40
0.0
 40
0.0
 40
0.0
 40
0.0884811926551858
 40
0.3131877944236329
 40
0.5300342937927901
 40
0.739229775121163
 40
0.9449828409040641
 40
1.0
 40
1.0
 40
1.0
 40
1.0
 10
662.4263182297015
 20
-159.1555181762488
 30
0.0
 10
662.548127069532
 20
-159.226410559054
 30
0.0
 10
662.9792813153445
 20
-159.4773410488664
 30
0.0
 10
663.5541729379759
 20
-160.184579333493
 30
0.0
 10
664.1329358788964
 20
-161.2723750890883
 30
0.0
 10
664.4997161048161
 20
-162.5926642336797
 30
0.0
 10
664.6273869377925
 20
-163.7228897505091
 30
0.0
 10
664.634850498558
 20
-164.3964746474275
 30
0.0
 10
664.6364251565169
 20
-164.5385872197336
 30
0.0
  0
SPLINE
  5
17C
330
1F
100
AcDbEntity
  8
0
  6
Continuous
 62
     7
370
    25
100
AcDbSpline
210
0.0
220
0.0
230
1.0
 70
     8
 71
     3
 72
    23
 73
    19
 74
     0
 42
0.00000001
 43
0.00000001
 40
0.0
 40
0.0
 40
0.0
 40
0.0
 40
0.0335894183173932
 40
0.0980090686472632
 40
0.1626136377275717
 40
0.2273772989805848
 40
0.2922707044179089
 40
0.3572397387519071
 40
0.4222220655242487
 40
0.4871348730787419
 40
0.5519085973445592
 40
0.6164811775628396
 40
0.6808078259984965
 40
0.7448964574291581
 40
0.8088825689857901
 40
0.8730223831884231
 40
0.9380494480027617
 40
1.0
 40
1.0
 40
1.0
 40
1.0
 10
664.6364251565169
 20
-164.5385872197336
 30
0.0
 10
664.6306983457227
 20
-164.8203180325141
 30
0.0
 10
664.6139883394062
 20
-165.6423678313208
 30
0.0
 10
664.4253833674367
 20
-167.1034775989025
 30
0.0
 10
664.000760484599
 20
-168.9135625394975
 30
0.0
 10
663.3698526514938
 20
-170.7613505990041
 30
0.0
 10
662.5499118985683
 20
-172.5974264790688
 30
0.0
 10
661.5592600610684
 20
-174.3762415147729
 30
0.0
 10
660.422749412196
 20
-176.0526130518709
 30
0.0
 10
659.1695448149472
 20
-177.5844341228502
 30
0.0
 10
657.8328142396218
 20
-178.9337159791613
 30
0.0
 10
656.4487434590457
 20
-180.068005680108
 30
0.0
 10
655.0555636642324
 20
-180.9618402056689
 30
0.0
 10
653.6925685048086
 20
-181.5974745172943
 30
0.0
 10
652.3969216007972
 20
-181.9688339756668
 30
0.0
 10
651.2050117645514
 20
-182.0718800912418
 30
0.0
 10
650.1501357149738
 20
-181.9451818883784
 30
0.0
 10
649.5697963096806
 20
-181.66501928335
 30
0.0
 10
649.2866570650923
 20
-181.5283319799787
 30
0.0
  0
SPLINE
  5
17D
330
1F
100
AcDbEntity
  8
0
  6
Continuous
 62
     7
370
    25
100
AcDbSpline
210
0.0
220
0.0
230
1.0
 70
     8
 71
     3
 72
    13
 73
     9
 74
     0
 42
0.00000001
 43
0.00000001
 40
0.0
 40
0.0
 40
0.0
 40
0.0
 40
0.0884811926552237
 40
0.3131877944236601
 40
0.5300342937928263
 40
0.7392297751211987
 40
0.9449828409041225
 40
1.0
 40
1.0
 40
1.0
 40
1.0
 10
490.974484063373
 20
-456.1188051316291
 30
0.0
 10
491.0962929032036
 20
-456.1896975144342
 30
0.0
 10
491.527447149016
 20
-456.4406280042467
 30
0.0
 10
492.1023387716475
 20
-457.1478662888734
 30
0.0
 10
492.681101712568
 20
-458.2356620444688
 30
0.0
 10
493.0478819384876
 20
-459.5559511890602
 30
0.0
 10
493.1755527714637
 20
-460.6861767058896
 30
0.0
 10
493.1830163322294
 20
-461.3597616028079
 30
0.0
 10
493.1845909901883
 20
-461.5018741751138
 30
0.0
  0
SPLINE
  5
17E
330
1F
100
AcDbEntity
  8
0
  6
Continuous
 62
     7
370
    25
100
AcDbSpline
210
0.0
220
0.0
230
1.0
 70
     8
 71
     3
 72
    23
 73
    19
 74
     0
 42
0.00000001
 43
0.00000001
 40
0.0
 40
0.0
 40
0.0
 40
0.0
 40
0.0335894183173933
 40
0.098009068647264
 40
0.1626136377275733
 40
0.227377298980583
 40
0.292270704417914
 40
0.3572397387519051
 40
0.4222220655242401
 40
0.4871348730787287
 40
0.5519085973445503
 40
0.6164811775628295
 40
0.6808078259984837
 40
0.7448964574291441
 40
0.8088825689857818
 40
0.8730223831884171
 40
0.9380494480027537
 40
0.9999999999999999
 40
0.9999999999999999
 40
0.9999999999999999
 40
0.9999999999999999
 10
493.1845909901883
 20
-461.5018741751138
 30
0.0
 10
493.1788641793942
 20
-461.7836049878943
 30
0.0
 10
493.1621541730777
 20
-462.605654786701
 30
0.0
 10
492.973549201108
 20
-464.0667645542827
 30
0.0
 10
492.5489263182704
 20
-465.8768494948777
 30
0.0
 10
491.9180184851652
 20
-467.7246375543842
 30
0.0
 10
491.0980777322397
 20
-469.5607134344492
 30
0.0
 10
490.1074258947398
 20
-471.339528470153
 30
0.0
 10
488.9709152458677
 20
-473.0159000072509
 30
0.0
 10
487.7177106486189
 20
-474.54772107823
 30
0.0
 10
486.3809800732935
 20
-475.8970029345413
 30
0.0
 10
484.9969092927173
 20
-477.0312926354881
 30
0.0
 10
483.6037294979042
 20
-477.925127161049
 30
0.0
 10
482.2407343384803
 20
-478.5607614726744
 30
0.0
 10
480.9450874344689
 20
-478.932120931047
 30
0.0
 10
479.7531775982229
 20
-479.035167046622
 30
0.0
 10
478.6983015486454
 20
-478.9084688437586
 30
0.0
 10
478.1179621433521
 20
-478.6283062387303
 30
0.0
 10
477.8348228987637
 20
-478.491618935359
 30
0.0
  0
SPLINE
  5
17F
330
1F
100
AcDbEntity
  8
0
  6
Continuous
 62
     7
370
    25
100
AcDbSpline
210
0.0
220
0.0
230
1.0
 70
     8
 71
     3
 72
    13
 73
     9
 74
     0
 42
0.00000001
 43
0.00000001
 40
0.0
 40
0.0
 40
0.0
 40
0.0
 40
0.0884811926552186
 40
0.3131877944236692
 40
0.5300342937928336
 40
0.7392297751212078
 40
0.9449828409041175
 40
1.0
 40
1.0
 40
1.0
 40
1.0
 10
599.670591399393
 20
-175.9658868504271
 30
0.0
 10
599.7924002392235
 20
-176.0367792332323
 30
0.0
 10
600.223554485036
 20
-176.2877097230448
 30
0.0
 10
600.7984461076674
 20
-176.9949480076715
 30
0.0
 10
601.377209048588
 20
-178.0827437632668
 30
0.0
 10
601.7439892745076
 20
-179.4030329078583
 30
0.0
 10
601.8716601074839
 20
-180.5332584246877
 30
0.0
 10
601.8791236682493
 20
-181.2068433216059
 30
0.0
 10
601.8806983262083
 20
-181.3489558939119
 30
0.0
  0
SPLINE
  5
180
330
1F
100
AcDbEntity
  8
0
  6
Continuous
 62
     7
370
    25
100
AcDbSpline
210
0.0
220
0.0
230
1.0
 70
     8
 71
     3
 72
    23
 73
    19
 74
     0
 42
0.00000001
 43
0.00000001
 40
0.0
 40
0.0
 40
0.0
 40
0.0
 40
0.0335894183173931
 40
0.0980090686472694
 40
0.1626136377275771
 40
0.2273772989805912
 40
0.2922707044179191
 40
0.3572397387519185
 40
0.4222220655242492
 40
0.4871348730787394
 40
0.5519085973445612
 40
0.61648117756284
 40
0.6808078259984957
 40
0.7448964574291608
 40
0.8088825689857913
 40
0.8730223831884282
 40
0.9380494480027652
 40
0.9999999999999999
 40
0.9999999999999999
 40
0.9999999999999999
 40
0.9999999999999999
 10
601.8806983262083
 20
-181.3489558939119
 30
0.0
 10
601.8749715154141
 20
-181.6306867066924
 30
0.0
 10
601.8582615090977
 20
-182.4527365054991
 30
0.0
 10
601.669656537128
 20
-183.9138462730809
 30
0.0
 10
601.2450336542904
 20
-185.723931213676
 30
0.0
 10
600.6141258211851
 20
-187.5717192731826
 30
0.0
 10
599.7941850682597
 20
-189.4077951532475
 30
0.0
 10
598.8035332307596
 20
-191.1866101889514
 30
0.0
 10
597.6670225818874
 20
-192.8629817260493
 30
0.0
 10
596.4138179846386
 20
-194.3948027970285
 30
0.0
 10
595.0770874093132
 20
-195.7440846533397
 30
0.0
 10
593.693016628737
 20
-196.8783743542863
 30
0.0
 10
592.2998368339238
 20
-197.7722088798473
 30
0.0
 10
590.9368416744999
 20
-198.4078431914726
 30
0.0
 10
589.6411947704885
 20
-198.7792026498451
 30
0.0
 10
588.4492849342427
 20
-198.8822487654201
 30
0.0
 10
587.3944088846652
 20
-198.7555505625566
 30
0.0
 10
586.8140694793719
 20
-198.4753879575283
 30
0.0
 10
586.5309302347837
 20
-198.338700654157
 30
0.0
  0
SPLINE
  5
181
330
1F
100
AcDbEntity
  8
0
  6
Continuous
 62
     7
370
    25
100
AcDbSpline
210
0.0
220
0.0
230
1.0
 70
     8
 71
     3
 72
    13
 73
     9
 74
     0
 42
0.00000001
 43
0.00000001
 40
0.0
 40
0.0
 40
0.0
 40
0.0
 40
0.0884811926552392
 40
0.3131877944236848
 40
0.5300342937928422
 40
0.7392297751212261
 40
0.944982840904146
 40
1.0
 40
1.0
 40
1.0
 40
1.0
 10
474.159137738767
 20
-393.3581008844216
 30
0.0
 10
474.2809465785975
 20
-393.4289932672267
 30
0.0
 10
474.7121008244101
 20
-393.6799237570392
 30
0.0
 10
475.2869924470414
 20
-394.387162041666
 30
0.0
 10
475.8657553879619
 20
-395.4749577972613
 30
0.0
 10
476.2325356138816
 20
-396.7952469418528
 30
0.0
 10
476.3602064468577
 20
-397.9254724586821
 30
0.0
 10
476.3676700076232
 20
-398.5990573556003
 30
0.0
 10
476.3692446655822
 20
-398.7411699279062
 30
0.0
  0
SPLINE
  5
182
330
1F
100
AcDbEntity
  8
0
  6
Continuous
 62
     7
370
    25
100
AcDbSpline
210
0.0
220
0.0
230
1.0
 70
     8
 71
     3
 72
    23
 73
    19
 74
     0
 42
0.00000001
 43
0.00000001
 40
0.0
 40
0.0
 40
0.0
 40
0.0
 40
0.033589418317393
 40
0.0980090686472637
 40
0.1626136377275731
 40
0.2273772989805832
 40
0.292270704417914
 40
0.357239738751906
 40
0.4222220655242419
 40
0.487134873078736
 40
0.5519085973445529
 40
0.616481177562836
 40
0.6808078259984898
 40
0.744896457429152
 40
0.8088825689857889
 40
0.8730223831884255
 40
0.9380494480027636
 40
0.9999999999999999
 40
0.9999999999999999
 40
0.9999999999999999
 40
0.9999999999999999
 10
476.3692446655822
 20
-398.7411699279062
 30
0.0
 10
476.363517854788
 20
-399.0229007406867
 30
0.0
 10
476.3468078484716
 20
-399.8449505394934
 30
0.0
 10
476.158202876502
 20
-401.306060307075
 30
0.0
 10
475.7335799936643
 20
-403.1161452476703
 30
0.0
 10
475.1026721605591
 20
-404.9639333071767
 30
0.0
 10
474.2827314076337
 20
-406.8000091872415
 30
0.0
 10
473.2920795701336
 20
-408.5788242229456
 30
0.0
 10
472.1555689212614
 20
-410.2551957600434
 30
0.0
 10
470.9023643240128
 20
-411.7870168310227
 30
0.0
 10
469.5656337486871
 20
-413.1362986873339
 30
0.0
 10
468.1815629681111
 20
-414.2705883882805
 30
0.0
 10
466.7883831732979
 20
-415.1644229138415
 30
0.0
 10
465.4253880138739
 20
-415.8000572254668
 30
0.0
 10
464.1297411098625
 20
-416.1714166838394
 30
0.0
 10
462.9378312736167
 20
-416.2744627994144
 30
0.0
 10
461.8829552240391
 20
-416.1477645965509
 30
0.0
 10
461.3026158187459
 20
-415.8676019915226
 30
0.0
 10
461.0194765741575
 20
-415.7309146881512
 30
0.0
  0
SPLINE
  5
183
330
1F
100
AcDbEntity
  8
0
  6
Continuous
 62
     7
370
    25
100
AcDbSpline
210
0.0
220
0.0
230
1.0
 70
     8
 71
     3
 72
    13
 73
     9
 74
     0
 42
0.00000001
 43
0.00000001
 40
0.0
 40
0.0
 40
0.0
 40
0.0
 40
0.0884811926552711
 40
0.3131877944237246
 40
0.5300342937928989
 40
0.7392297751212734
 40
0.9449828409041856
 40
1.0
 40
1.0
 40
1.0
 40
1.0
 10
536.9148645690825
 20
-231.6117381005106
 30
0.0
 10
537.0366734089132
 20
-231.6826304833157
 30
0.0
 10
537.4678276547257
 20
-231.9335609731283
 30
0.0
 10
538.0427192773572
 20
-232.6407992577551
 30
0.0
 10
538.6214822182776
 20
-233.7285950133506
 30
0.0
 10
538.9882624441972
 20
-235.0488841579421
 30
0.0
 10
539.1159332771733
 20
-236.1791096747713
 30
0.0
 10
539.1233968379389
 20
-236.8526945716893
 30
0.0
 10
539.1249714958977
 20
-236.9948071439951
 30
0.0
  0
SPLINE
  5
184
330
1F
100
AcDbEntity
  8
0
  6
Continuous
 62
     7
370
    25
100
AcDbSpline
210
0.0
220
0.0
230
1.0
 70
     8
 71
     3
 72
    23
 73
    19
 74
     0
 42
0.00000001
 43
0.00000001
 40
0.0
 40
0.0
 40
0.0
 40
0.0
 40
0.0335894183173932
 40
0.0980090686472633
 40
0.1626136377275718
 40
0.2273772989805848
 40
0.292270704417909
 40
0.3572397387519071
 40
0.4222220655242488
 40
0.487134873078742
 40
0.5519085973445593
 40
0.6164811775628399
 40
0.6808078259984915
 40
0.7448964574291584
 40
0.8088825689857958
 40
0.8730223831884342
 40
0.9380494480027735
 40
1.0
 40
1.0
 40
1.0
 40
1.0
 10
539.1249714958977
 20
-236.9948071439951
 30
0.0
 10
539.1192446851037
 20
-237.2765379567756
 30
0.0
 10
539.1025346787873
 20
-238.0985877555823
 30
0.0
 10
538.9139297068175
 20
-239.559697523164
 30
0.0
 10
538.4893068239799
 20
-241.3697824637591
 30
0.0
 10
537.8583989908748
 20
-243.2175705232656
 30
0.0
 10
537.0384582379493
 20
-245.0536464033304
 30
0.0
 10
536.0478064004492
 20
-246.8324614390345
 30
0.0
 10
534.9112957515771
 20
-248.5088329761324
 30
0.0
 10
533.6580911543282
 20
-250.0406540471117
 30
0.0
 10
532.3213605790027
 20
-251.3899359034229
 30
0.0
 10
530.9372897984266
 20
-252.5242256043695
 30
0.0
 10
529.5441100036134
 20
-253.4180601299305
 30
0.0
 10
528.1811148441896
 20
-254.0536944415558
 30
0.0
 10
526.8854679401779
 20
-254.4250538999283
 30
0.0
 10
525.6935581039321
 20
-254.5281000155034
 30
0.0
 10
524.6386820543547
 20
-254.4014018126398
 30
0.0
 10
524.0583426490615
 20
-254.1212392076116
 30
0.0
 10
523.7752034044731
 20
-253.9845519042402
 30
0.0
  0
SPLINE
  5
185
330
1F
100
AcDbEntity
  8
0
  6
Continuous
 62
     7
370
    25
100
AcDbSpline
210
0.0
220
0.0
230
1.0
 70
     8
 71
     3
 72
    13
 73
     9
 74
     0
 42
0.00000001
 43
0.00000001
 40
0.0
 40
0.0
 40
0.0
 40
0.0
 40
0.0884811926552655
 40
0.3131877944236875
 40
0.5300342937928638
 40
0.73922977512125
 40
0.9449828409041733
 40
0.9999999999999999
 40
0.9999999999999999
 40
0.9999999999999999
 40
0.9999999999999999
 10
490.9744840633801
 20
-311.1828110218964
 30
0.0
 10
491.0962929032107
 20
-311.2537034047016
 30
0.0
 10
491.5274471490232
 20
-311.5046338945141
 30
0.0
 10
492.1023387716546
 20
-312.211872179141
 30
0.0
 10
492.6811017125751
 20
-313.2996679347363
 30
0.0
 10
493.0478819384946
 20
-314.6199570793278
 30
0.0
 10
493.1755527714709
 20
-315.7501825961571
 30
0.0
 10
493.1830163322363
 20
-316.4237674930752
 30
0.0
 10
493.1845909901953
 20
-316.5658800653811
 30
0.0
  0
SPLINE
  5
186
330
1F
100
AcDbEntity
  8
0
  6
Continuous
 62
     7
370
    25
100
AcDbSpline
210
0.0
220
0.0
230
1.0
 70
     8
 71
     3
 72
    23
 73
    19
 74
     0
 42
0.00000001
 43
0.00000001
 40
0.0
 40
0.0
 40
0.0
 40
0.0
 40
0.0335894183173931
 40
0.0980090686472633
 40
0.1626136377275723
 40
0.2273772989805815
 40
0.2922707044179131
 40
0.3572397387519107
 40
0.4222220655242458
 40
0.4871348730787404
 40
0.5519085973445617
 40
0.6164811775628427
 40
0.6808078259984963
 40
0.7448964574291613
 40
0.8088825689857976
 40
0.873022383188434
 40
0.9380494480027681
 40
0.9999999999999999
 40
0.9999999999999999
 40
0.9999999999999999
 40
0.9999999999999999
 10
493.1845909901953
 20
-316.5658800653811
 30
0.0
 10
493.1788641794012
 20
-316.8476108781616
 30
0.0
 10
493.1621541730846
 20
-317.6696606769683
 30
0.0
 10
492.973549201115
 20
-319.1307704445499
 30
0.0
 10
492.5489263182774
 20
-320.940855385145
 30
0.0
 10
491.9180184851721
 20
-322.7886434446515
 30
0.0
 10
491.0980777322467
 20
-324.6247193247164
 30
0.0
 10
490.1074258947467
 20
-326.4035343604205
 30
0.0
 10
488.9709152458744
 20
-328.0799058975184
 30
0.0
 10
487.7177106486257
 20
-329.6117269684977
 30
0.0
 10
486.3809800733001
 20
-330.9610088248089
 30
0.0
 10
484.996909292724
 20
-332.0952985257555
 30
0.0
 10
483.6037294979108
 20
-332.9891330513165
 30
0.0
 10
482.2407343384868
 20
-333.6247673629418
 30
0.0
 10
480.9450874344754
 20
-333.9961268213142
 30
0.0
 10
479.7531775982296
 20
-334.0991729368893
 30
0.0
 10
478.6983015486521
 20
-333.9724747340258
 30
0.0
 10
478.117962143359
 20
-333.6923121289974
 30
0.0
 10
477.8348228987705
 20
-333.5556248256261
 30
0.0
  0
LWPOLYLINE
  5
187
330
1F
100
AcDbEntity
  8
0
  6
Continuous
 62
     7
370
    25
100
AcDbPolyline
 90
      154
 70
   128
 43
0.0
 10
739.7058604858
 20
-246.481057073
 10
739.5815588326
 20
-239.5632471863
 10
739.2088634735
 20
-232.8006179261
 10
738.5884028574
 20
-226.2045726151
 10
737.7212232212
 20
-219.786233678
 10
736.6087868259
 20
-213.5564238861
 10
735.2529694909
 20
-207.5256481082
 10
733.6560574311
 20
-201.7040755964
 10
731.8207434013
 20
-196.101522839
 10
729.7501221562
 20
-190.7274370074
 10
727.4476852317
 20
-185.5908800261
 10
724.9173150572
 20
-180.7005132921
 10
722.1632784095
 20
-176.0645830701
 10
719.1902192171
 20
-171.6909065871
 10
716.0031507306
 20
-167.5868588512
 10
712.6074470684
 20
-163.7593602152
 10
709.008834155
 20
-160.2148647078
 10
705.2133800659
 20
-156.9593491502
 10
701.2274847954
 20
-153.9983030781
 10
697.0578694645
 20
-151.3367194851
 10
692.711564988
 20
-148.9790864032
 10
688.1959002184
 20
-146.9293793351
 10
683.5184895882
 20
-145.1910545507
 10
678.6872202697
 20
-143.7670432588
 10
673.7102388761
 20
-142.6597466645
 10
668.5959377237
 20
-141.8710319204
 10
663.3529406815
 20
-141.4022289781
 10
657.9900886284
 20
-141.2541283453
 10
652.5164245462
 20
-141.4269797532
 10
646.9411782708
 20
-141.9204917352
 10
641.2737509288
 20
-142.7338321184
 10
635.5236990847
 20
-143.8656294271
 10
629.7007186268
 20
-145.3139751948
 10
623.8146284173
 20
-147.076427183
 10
617.8753537359
 20
-149.150013499
 10
611.8929095435
 20
-151.531237607
 10
605.8773835942
 20
-154.2160842245
 10
599.8389194256
 20
-157.2000260929
 10
593.7876992544
 20
-160.478031611
 10
587.7339268068
 20
-164.0445733199
 10
581.6878101125
 20
-167.8936372236
 10
575.6595442921
 20
-172.0187329295
 10
569.6592943656
 20
-176.4129045931
 10
563.6971781116
 20
-181.0687426469
 10
557.783249007
 20
-185.9783962947
 10
551.9274792741
 20
-191.1335867497
 10
546.1397430654
 20
-196.5256211946
 10
540.4297998135
 20
-202.1454074395
 10
534.8072777744
 20
-207.9834692535
 10
529.2816577922
 20
-214.0299623436
 10
523.8622573122
 20
-220.2746909547
 10
518.5582146697
 20
-226.7071250616
 10
513.3784736804
 20
-233.3164181252
 10
508.3317685595
 20
-240.0914253822
 10
503.4266091934
 20
-247.0207226378
 10
498.6712667905
 20
-254.0926255291
 10
494.0737599339
 20
-261.2952092282
 10
489.6418410602
 20
-268.6163285494
 10
485.3829833872
 20
-276.0436384294
 10
481.3043683124
 20
-283.5646147434
 10
477.4128733035
 20
-291.1665754241
 10
473.7150603014
 20
-298.8367018459
 10
470.2171646555
 20
-306.5620604406
 10
466.925084609
 20
-314.3296245058
 10
463.8443713537
 20
-322.1262961714
 10
460.980219669
 20
-329.9389284851
 10
458.3374591627
 20
-337.7543475815
 10
455.9205461268
 20
-345.5593748959
 10
453.7335560234
 20
-353.3408493866
 10
451.7801766126
 20
-361.0856497272
 10
450.063701734
 20
-368.7807164323
 10
448.5870257525
 20
-376.4130738787
 10
447.352638678
 20
-383.969852185
 10
446.3626219662
 20
-391.4383089135
 10
445.6186450093
 20
-398.8058505567
 10
445.1219623208
 20
-406.0600537725
 10
444.87341142
 20
-413.1886863334
 10
444.87341142
 20
-420.1797277521
 10
445.1219623208
 20
-427.0213895512
 10
445.6186450093
 20
-433.7021351413
 10
446.3626219662
 20
-440.2106992739
 10
447.352638678
 20
-446.5361070375
 10
448.5870257525
 20
-452.6676923636
 10
450.063701734
 20
-458.5951160123
 10
451.7801766126
 20
-464.3083830064
 10
453.7335560234
 20
-469.7978594853
 10
455.9205461268
 20
-475.0542889497
 10
458.3374591627
 20
-480.0688078704
 10
460.980219669
 20
-484.8329606342
 10
463.8443713537
 20
-489.3387138017
 10
466.925084609
 20
-493.5784696538
 10
470.2171646555
 20
-497.545079003
 10
473.7150603014
 20
-501.2318532485
 10
477.4128733035
 20
-504.632575655
 10
481.3043683124
 20
-507.7415118351
 10
485.3829833872
 20
-510.5534194191
 10
489.6418410602
 20
-513.0635568948
 10
494.0737599339
 20
-515.2676916025
 10
498.6712667905
 20
-517.1621068724
 10
503.4266091934
 20
-518.7436082919
 10
508.3317685595
 20
-520.0095290917
 10
513.3784736804
 20
-520.9577346431
 10
518.5582146697
 20
-521.5866260569
 10
523.8622573122
 20
-521.89514288
 10
529.2816577922
 20
-521.8827648832
 10
534.8072777744
 20
-521.5495129386
 10
540.4297998135
 20
-520.8959489843
 10
546.1397430654
 20
-519.9231750771
 10
551.9274792741
 20
-518.6328315339
 10
557.783249007
 20
-517.0270941657
 10
563.6971781116
 20
-515.108670609
 10
569.6592943656
 20
-512.8807957599
 10
575.6595442921
 20
-510.3472263194
 10
581.6878101125
 20
-507.5122344588
 10
587.7339268068
 20
-504.3806006156
 10
593.7876992544
 20
-500.957605433
 10
599.8389194256
 20
-497.2490208552
 10
605.8773835942
 20
-493.2611003947
 10
611.8929095435
 20
-489.0005685878
 10
617.8753537359
 20
-484.4746096547
 10
623.8146284173
 20
-479.6908553861
 10
629.7007186268
 20
-474.657372274
 10
635.5236990847
 20
-469.3826479096
 10
641.2737509288
 20
-463.8755766713
 10
646.9411782708
 20
-458.1454447272
 10
652.5164245462
 20
-452.201914376
 10
657.9900886284
 20
-446.0550077544
 10
663.3529406815
 20
-439.7150899376
 10
668.5959377237
 20
-433.1928514613
 10
673.7102388761
 20
-426.4992902949
 10
678.6872202697
 20
-419.645693297
 10
683.5184895882
 20
-412.6436171824
 10
688.1959002184
 20
-405.5048690355
 10
692.711564988
 20
-398.2414864008
 10
697.0578694645
 20
-390.8657169843
 10
701.2274847954
 20
-383.389998002
 10
705.2133800659
 20
-375.8269352072
 10
709.008834155
 20
-368.1892816348
 10
712.6074470684
 20
-360.4899160965
 10
716.0031507306
 20
-352.7418214644
 10
719.1902192171
 20
-344.9580627788
 10
722.1632784095
 20
-337.1517652177
 10
724.9173150572
 20
-329.3360919649
 10
727.4476852317
 20
-321.5242220134
 10
729.7501221562
 20
-313.7293279433
 10
731.8207434013
 20
-305.9645537094
 10
733.6560574311
 20
-298.2429924776
 10
735.2529694909
 20
-290.5776645469
 10
736.6087868259
 20
-282.9814953944
 10
737.7212232212
 20
-275.4672938795
 10
738.5884028574
 20
-268.0477306461
 10
739.2088634735
 20
-260.7353167561
 10
739.5815588326
 20
-253.5423825937
 10
739.7058604858
 20
-246.481057073
  0
ARC
  5
188
330
1F
100
AcDbEntity
  8
0
  6
Continuous
 62
     7
370
    25
100
AcDbCircle
 10
524.5828918431
 20
-450.4878138554
 30
0.0
 40
72.63973309888662
100
AcDbArc
 50
214.6788882901
 51
265.5046605299
  0
ARC
  5
189
330
1F
100
AcDbEntity
  8
0
  6
Continuous
 62
     7
370
    25
100
AcDbCircle
 10
661.3206044913
 20
-213.6036739525
 30
0.0
 40
72.73610231258114
100
AcDbArc
 50
35.0690040697
 51
85.4749475587
  0
ARC
  5
18A
330
1F
100
AcDbEntity
  8
0
  6
Continuous
 62
     7
370
    25
100
AcDbCircle
 10
681.6152119621
 20
-226.6390111055
 30
0.0
 40
73.94013102633205
100
AcDbArc
 50
35.3009734312
 51
59.6857794919
  0
ARC
  5
18B
330
1F
100
AcDbEntity
  8
0
  6
Continuous
 62
     7
370
    25
100
AcDbCircle
 10
546.2150320171
 20
-461.0437216637
 30
0.0
 40
74.36202365908004
100
AcDbArc
 50
240.3719977965
 51
265.6816482157
  0
LWPOLYLINE
  5
18C
330
1F
100
AcDbEntity
  8
0
  6
Continuous
 62
     7
370
    25
100
AcDbPolyline
 90
       40
 70
   128
 43
0.0
 10
493.477484209
 20
-316.1576760095
 10
493.3492883496
 20
-318.065434909
 10
492.9680209766
 20
-320.0717956439
 10
492.3435567149
 20
-322.124794525
 10
491.4920688608
 20
-324.1712599598
 10
490.4356105024
 20
-326.1581895684
 10
489.2015433563
 20
-328.0341229177
 10
487.8218291134
 20
-329.7504743192
 10
486.3322016477
 20
-331.2627911733
 10
484.7712415283
 20
-332.5319052678
 10
483.1793768022
 20
-333.5249472143
 10
481.5978359297
 20
-334.216197748
 10
480.0675799886
 20
-334.5877538431
 10
478.6282418041
 20
-334.6299923921
 10
477.317099479
 20
-334.3418194386
 10
476.1681109109
 20
-333.7306985107
 10
475.2110343001
 20
-332.8124573196
 10
474.4706574281
 20
-331.6108778297
 10
473.966155667
 20
-330.1570803186
 10
473.7105953475
 20
-328.4887173783
 10
473.7105953475
 20
-326.6489987325
 10
473.966155667
 20
-324.6855721278
 10
474.4706574281
 20
-322.649289282
 10
475.2110343001
 20
-320.592888851
 10
476.1681109109
 20
-318.569630526
 10
477.317099479
 20
-316.6319156348
 10
478.6282418041
 20
-314.8299299751
 10
480.0675799886
 20
-313.2103440291
 10
481.5978359297
 20
-311.8151042221
 10
483.1793768022
 20
-310.6803465321
 10
484.7712415283
 20
-309.8354605872
 10
486.3322016477
 20
-309.3023284896
 10
487.8218291134
 20
-309.0947580807
 10
489.2015433563
 20
-309.218125325
 10
490.4356105024
 20
-309.6692350756
 10
491.4920688608
 20
-310.4364038269
 10
492.3435567149
 20
-311.4997623114
 10
492.9680209766
 20
-312.8317701027
 10
493.3492883496
 20
-314.3979288988
 10
493.477484209
 20
-316.1576760095
  0
LWPOLYLINE
  5
18D
330
1F
100
AcDbEntity
  8
0
  6
Continuous
 62
     7
370
    25
100
AcDbPolyline
 90
       40
 70
   128
 43
0.0
 10
493.477484209
 20
-461.0936701192
 10
493.3492883496
 20
-463.0014290187
 10
492.9680209766
 20
-465.0077897536
 10
492.3435567149
 20
-467.0607886348
 10
491.4920688608
 20
-469.1072540695
 10
490.4356105024
 20
-471.0941836782
 10
489.2015433563
 20
-472.9701170274
 10
487.8218291134
 20
-474.686468429
 10
486.3322016477
 20
-476.1987852831
 10
484.7712415283
 20
-477.4678993775
 10
483.1793768022
 20
-478.460941324
 10
481.5978359297
 20
-479.1521918577
 10
480.0675799886
 20
-479.5237479529
 10
478.6282418041
 20
-479.5659865018
 10
477.317099479
 20
-479.2778135483
 10
476.1681109109
 20
-478.6666926205
 10
475.2110343001
 20
-477.7484514293
 10
474.4706574281
 20
-476.5468719394
 10
473.966155667
 20
-475.0930744283
 10
473.7105953475
 20
-473.424711488
 10
473.7105953475
 20
-471.5849928422
 10
473.966155667
 20
-469.6215662375
 10
474.4706574281
 20
-467.5852833917
 10
475.2110343001
 20
-465.5288829608
 10
476.1681109109
 20
-463.5056246358
 10
477.317099479
 20
-461.5679097445
 10
478.6282418041
 20
-459.7659240849
 10
480.0675799886
 20
-458.1463381389
 10
481.5978359297
 20
-456.7510983318
 10
483.1793768022
 20
-455.6163406418
 10
484.7712415283
 20
-454.7714546969
 10
486.3322016477
 20
-454.2383225994
 10
487.8218291134
 20
-454.0307521905
 10
489.2015433563
 20
-454.1541194347
 10
490.4356105024
 20
-454.6052291853
 10
491.4920688608
 20
-455.3723979366
 10
492.3435567149
 20
-456.4357564211
 10
492.9680209766
 20
-457.7677642124
 10
493.3492883496
 20
-459.3339230085
 10
493.477484209
 20
-461.0936701192
  0
LWPOLYLINE
  5
18E
330
1F
100
AcDbEntity
  8
0
  6
Continuous
 62
     7
370
    25
100
AcDbPolyline
 90
       40
 70
   128
 43
0.0
 10
602.173591545
 20
-470.8127400575
 10
602.0453956856
 20
-472.720498957
 10
601.6641283126
 20
-474.7268596919
 10
601.0396640509
 20
-476.779858573
 10
600.1881761968
 20
-478.8263240078
 10
599.1317178384
 20
-480.8132536164
 10
597.8976506923
 20
-482.6891869657
 10
596.5179364494
 20
-484.4055383672
 10
595.0283089837
 20
-485.9178552213
 10
593.4673488643
 20
-487.1869693158
 10
591.8754841382
 20
-488.1800112623
 10
590.2939432657
 20
-488.871261796
 10
588.7636873246
 20
-489.2428178911
 10
587.3243491401
 20
-489.2850564401
 10
586.013206815
 20
-488.9968834866
 10
584.8642182469
 20
-488.3857625587
 10
583.9071416361
 20
-487.4675213676
 10
583.1667647641
 20
-486.2659418777
 10
582.662263003
 20
-484.8121443666
 10
582.4067026835
 20
-483.1437814263
 10
582.4067026835
 20
-481.3040627805
 10
582.662263003
 20
-479.3406361758
 10
583.1667647641
 20
-477.30435333
 10
583.9071416361
 20
-475.247952899
 10
584.8642182469
 20
-473.224694574
 10
586.013206815
 20
-471.2869796828
 10
587.3243491401
 20
-469.4849940231
 10
588.7636873246
 20
-467.8654080771
 10
590.2939432657
 20
-466.4701682701
 10
591.8754841382
 20
-465.3354105801
 10
593.4673488643
 20
-464.4905246352
 10
595.0283089837
 20
-463.9573925376
 10
596.5179364494
 20
-463.7498221287
 10
597.8976506923
 20
-463.873189373
 10
599.1317178384
 20
-464.3242991236
 10
600.1881761968
 20
-465.0914678749
 10
601.0396640509
 20
-466.1548263593
 10
601.6641283126
 20
-467.4868341507
 10
602.0453956856
 20
-469.0529929468
 10
602.173591545
 20
-470.8127400575
  0
LWPOLYLINE
  5
18F
330
1F
100
AcDbEntity
  8
0
  6
Continuous
 62
     7
370
    25
100
AcDbPolyline
 90
       40
 70
   128
 43
0.0
 10
727.6850452056
 20
-253.4205260235
 10
727.5568493462
 20
-255.328284923
 10
727.1755819733
 20
-257.3346456579
 10
726.5511177116
 20
-259.387644539
 10
725.6996298574
 20
-261.4341099738
 10
724.6431714991
 20
-263.4210395824
 10
723.409104353
 20
-265.2969729317
 10
722.02939011
 20
-267.0133243332
 10
720.5397626443
 20
-268.5256411873
 10
718.9788025249
 20
-269.7947552818
 10
717.3869377988
 20
-270.7877972283
 10
715.8053969263
 20
-271.479047762
 10
714.2751409852
 20
-271.8506038571
 10
712.8358028007
 20
-271.8928424061
 10
711.5246604756
 20
-271.6046694526
 10
710.3756719075
 20
-270.9935485247
 10
709.4185952967
 20
-270.0753073336
 10
708.6782184247
 20
-268.8737278437
 10
708.1737166637
 20
-267.4199303326
 10
707.9181563441
 20
-265.7515673923
 10
707.9181563441
 20
-263.9118487465
 10
708.1737166637
 20
-261.9484221418
 10
708.6782184247
 20
-259.912139296
 10
709.4185952967
 20
-257.855738865
 10
710.3756719075
 20
-255.83248054
 10
711.5246604756
 20
-253.8947656488
 10
712.8358028007
 20
-252.0927799891
 10
714.2751409852
 20
-250.4731940431
 10
715.8053969263
 20
-249.0779542361
 10
717.3869377988
 20
-247.9431965461
 10
718.9788025249
 20
-247.0983106012
 10
720.5397626443
 20
-246.5651785037
 10
722.02939011
 20
-246.3576080947
 10
723.409104353
 20
-246.480975339
 10
724.6431714991
 20
-246.9320850896
 10
725.6996298574
 20
-247.6992538409
 10
726.5511177116
 20
-248.7626123254
 10
727.1755819733
 20
-250.0946201167
 10
727.5568493462
 20
-251.6607789128
 10
727.6850452056
 20
-253.4205260235
  0
LWPOLYLINE
  5
190
330
1F
100
AcDbEntity
  8
0
  6
Continuous
 62
     7
370
    25
100
AcDbPolyline
 90
       40
 70
   128
 43
0.0
 10
664.9293183753
 20
-164.1303831638
 10
664.8011225159
 20
-166.0381420633
 10
664.419855143
 20
-168.0445027982
 10
663.7953908813
 20
-170.0975016794
 10
662.9439030271
 20
-172.1439671142
 10
661.8874446688
 20
-174.1308967228
 10
660.6533775227
 20
-176.006830072
 10
659.2736632797
 20
-177.7231814736
 10
657.784035814
 20
-179.2354983277
 10
656.2230756946
 20
-180.5046124222
 10
654.6312109685
 20
-181.4976543687
 10
653.049670096
 20
-182.1889049023
 10
651.5194141549
 20
-182.5604609975
 10
650.0800759704
 20
-182.6026995464
 10
648.7689336453
 20
-182.3145265929
 10
647.6199450772
 20
-181.7034056651
 10
646.6628684664
 20
-180.785164474
 10
645.9224915944
 20
-179.583584984
 10
645.4179898334
 20
-178.129787473
 10
645.1624295138
 20
-176.4614245326
 10
645.1624295138
 20
-174.6217058868
 10
645.4179898334
 20
-172.6582792822
 10
645.9224915944
 20
-170.6219964363
 10
646.6628684664
 20
-168.5655960054
 10
647.6199450772
 20
-166.5423376804
 10
648.7689336453
 20
-164.6046227891
 10
650.0800759704
 20
-162.8026371295
 10
651.5194141549
 20
-161.1830511835
 10
653.049670096
 20
-159.7878113764
 10
654.6312109685
 20
-158.6530536864
 10
656.2230756946
 20
-157.8081677415
 10
657.784035814
 20
-157.275035644
 10
659.2736632797
 20
-157.0674652351
 10
660.6533775227
 20
-157.1908324793
 10
661.8874446688
 20
-157.6419422299
 10
662.9439030271
 20
-158.4091109813
 10
663.7953908813
 20
-159.4724694657
 10
664.419855143
 20
-160.804477257
 10
664.8011225159
 20
-162.3706360531
 10
664.9293183753
 20
-164.1303831638
  0
LWPOLYLINE
  5
191
330
1F
100
AcDbEntity
  8
0
  6
Continuous
 62
     7
370
    25
100
AcDbPolyline
 90
       40
 70
   128
 43
0.0
 10
602.173591545
 20
-180.940751838
 10
602.0453956856
 20
-182.8485107375
 10
601.6641283127
 20
-184.8548714724
 10
601.039664051
 20
-186.9078703536
 10
600.1881761968
 20
-188.9543357883
 10
599.1317178384
 20
-190.941265397
 10
597.8976506923
 20
-192.8171987462
 10
596.5179364494
 20
-194.5335501478
 10
595.0283089837
 20
-196.0458670018
 10
593.4673488643
 20
-197.3149810963
 10
591.8754841382
 20
-198.3080230428
 10
590.2939432657
 20
-198.9992735765
 10
588.7636873246
 20
-199.3708296717
 10
587.3243491401
 20
-199.4130682206
 10
586.013206815
 20
-199.1248952671
 10
584.8642182469
 20
-198.5137743393
 10
583.9071416361
 20
-197.5955331481
 10
583.1667647641
 20
-196.3939536582
 10
582.6622630031
 20
-194.9401561471
 10
582.4067026835
 20
-193.2717932068
 10
582.4067026835
 20
-191.432074561
 10
582.6622630031
 20
-189.4686479563
 10
583.1667647641
 20
-187.4323651105
 10
583.9071416361
 20
-185.3759646796
 10
584.8642182469
 20
-183.3527063546
 10
586.013206815
 20
-181.4149914633
 10
587.3243491401
 20
-179.6130058037
 10
588.7636873246
 20
-177.9934198577
 10
590.2939432657
 20
-176.5981800506
 10
591.8754841382
 20
-175.4634223606
 10
593.4673488643
 20
-174.6185364157
 10
595.0283089837
 20
-174.0854043182
 10
596.5179364494
 20
-173.8778339093
 10
597.8976506923
 20
-174.0012011535
 10
599.1317178384
 20
-174.4523109041
 10
600.1881761968
 20
-175.2194796554
 10
601.039664051
 20
-176.2828381399
 10
601.6641283127
 20
-177.6148459312
 10
602.0453956856
 20
-179.1810047273
 10
602.173591545
 20
-180.940751838
  0
LWPOLYLINE
  5
192
330
1F
100
AcDbEntity
  8
0
  6
Continuous
 62
     7
370
    25
100
AcDbPolyline
 90
      128
 70
   128
 43
0.0
 10
694.8045798805
 20
-272.4020146233
 10
694.6791252436
 20
-278.329680233
 10
694.3030683415
 20
-284.3876866922
 10
693.6773294484
 20
-290.561209044
 10
692.8034398523
 20
-296.8351396447
 10
691.6835381074
 20
-303.1941251347
 10
690.3203648009
 20
-309.622604011
 10
688.7172558465
 20
-316.1048447086
 10
686.8781343202
 20
-322.6249840981
 10
684.8075008608
 20
-329.1670663061
 10
682.5104226551
 20
-335.7150817609
 10
679.9925210386
 20
-342.2530063716
 10
677.2599577385
 20
-348.764840741
 10
674.3194197949
 20
-355.2346493192
 10
671.178103197
 20
-361.6465994006
 10
667.843695273
 20
-367.9849998687
 10
664.3243558777
 20
-374.2343395955
 10
660.6286974244
 20
-380.3793253996
 10
656.7657638086
 20
-386.4049194708
 10
652.7450082763
 20
-392.2963761708
 10
648.5762702898
 20
-398.0392781178
 10
644.2697514498
 20
-403.6195714684
 10
639.8359905293
 20
-409.0236003097
 10
635.2858376844
 20
-414.2381400775
 10
630.6304279016
 20
-419.2504299192
 10
625.8811537487
 20
-424.0482039217
 10
621.0496374953
 20
-428.6197211279
 10
616.1477026714
 20
-432.9537942693
 10
611.187345133
 20
-437.0398171426
 10
606.1807037061
 20
-440.8677905651
 10
601.1400304813
 20
-444.4283468444
 10
596.0776608306
 20
-447.7127727027
 10
591.0059832209
 20
-450.7130305994
 10
585.9374088972
 20
-453.4217784008
 10
580.8843415101
 20
-455.832387347
 10
575.8591467624
 20
-457.9389582741
 10
570.8741221476
 20
-459.7363360499
 10
565.9414668564
 20
-461.2201221899
 10
561.0732519227
 20
-462.3866856208
 10
556.2813906844
 20
-463.2331715663
 10
551.5776096288
 20
-463.7575085335
 10
546.9734196964
 20
-463.9584133819
 10
542.4800881115
 20
-463.8353944638
 10
538.1086108095
 20
-463.388752827
 10
533.8696855278
 20
-462.6195814785
 10
529.773685627
 20
-461.5297627094
 10
525.8306347051
 20
-460.121963489
 10
522.0501820685
 20
-458.3996289377
 10
518.4415791183
 20
-456.3669738969
 10
515.0136567106
 20
-454.0289726141
 10
511.774803546
 20
-451.3913465702
 10
508.7329456409
 20
-448.460550478
 10
505.8955269314
 20
-445.2437564868
 10
503.2694910564
 20
-441.7488366305
 10
500.8612643659
 20
-437.9843435637
 10
498.676740194
 20
-433.9594896316
 10
496.7212644375
 20
-429.6841243264
 10
494.9996224733
 20
-425.1687101833
 10
493.5160274477
 20
-420.4242971774
 10
492.2741099664
 20
-415.4624956824
 10
491.2769092096
 20
-410.295448058
 10
490.5268654945
 20
-404.9357989355
 10
490.0258143039
 20
-399.3966642745
 10
489.7749817941
 20
-393.6915992657
 10
489.7749817941
 20
-387.8345651592
 10
490.0258143039
 20
-381.8398950989
 10
490.5268654945
 20
-375.7222590471
 10
491.2769092096
 20
-369.4966278841
 10
492.2741099664
 20
-363.1782367729
 10
493.5160274477
 20
-356.7825478751
 10
494.9996224733
 20
-350.3252125132
 10
496.7212644375
 20
-343.822032869
 10
498.676740194
 20
-337.2889233128
 10
500.8612643659
 20
-330.7418714584
 10
503.2694910564
 20
-324.1968990388
 10
505.8955269314
 20
-317.6700226983
 10
508.7329456409
 20
-311.177214797
 10
511.774803546
 20
-304.7343643238
 10
515.0136567106
 20
-298.3572380135
 10
518.4415791183
 20
-292.0614417628
 10
522.0501820685
 20
-285.8623824401
 10
525.8306347051
 20
-279.7752301824
 10
529.773685627
 20
-273.8148812713
 10
533.8696855278
 20
-267.9959216793
 10
538.1086108095
 20
-262.3325913756
 10
542.4800881115
 20
-256.8387494786
 10
546.9734196964
 20
-251.52784034
 10
551.5776096288
 20
-246.4128606443
 10
556.2813906844
 20
-241.506327604
 10
561.0732519227
 20
-236.8202483276
 10
565.9414668564
 20
-232.3660904365
 10
570.8741221476
 20
-228.1547540013
 10
575.8591467624
 20
-224.1965448681
 10
580.8843415101
 20
-220.5011494377
 10
585.9374088972
 20
-217.0776109622
 10
591.0059832209
 20
-213.9343074138
 10
596.0776608306
 20
-211.078930983
 10
601.1400304813
 20
-208.5184692545
 10
606.1807037061
 20
-206.2591881072
 10
611.187345133
 20
-204.3066163806
 10
616.1477026714
 20
-202.6655323449
 10
621.0496374953
 20
-201.3399520078
 10
625.8811537487
 20
-200.3331192864
 10
630.6304279016
 20
-199.6474980693
 10
635.2858376844
 20
-199.2847661863
 10
639.8359905293
 20
-199.2458113031
 10
644.2697514498
 20
-199.530728749
 10
648.5762702898
 20
-200.1388212832
 10
652.7450082763
 20
-201.0686008012
 10
656.7657638086
 20
-202.317791977
 10
660.6286974244
 20
-203.8833378302
 10
664.3243558777
 20
-205.761407208
 10
667.843695273
 20
-207.9474041597
 10
671.178103197
 20
-210.4359791846
 10
674.3194197949
 20
-213.2210423225
 10
677.2599577385
 20
-216.2957780572
 10
679.9925210386
 20
-219.6526619953
 10
682.5104226551
 20
-223.283479279
 10
684.8075008608
 20
-227.1793446903
 10
686.8781343202
 20
-231.3307243934
 10
688.7172558465
 20
-235.7274592667
 10
690.3203648009
 20
-240.3587897632
 10
691.6835381074
 20
-245.213382241
 10
692.8034398523
 20
-250.2793566989
 10
693.6773294484
 20
-255.5443158484
 10
694.3030683415
 20
-260.9953754523
 10
694.6791252436
 20
-266.6191958542
 10
694.8045798805
 20
-272.4020146233
  0
LWPOLYLINE
  5
193
330
1F
100
AcDbEntity
  8
0
  6
Continuous
 62
     7
370
    25
100
AcDbPolyline
 90
       40
 70
   128
 43
0.0
 10
710.869698881
 20
-335.595815886
 10
710.7415030216
 20
-337.5035747855
 10
710.3602356487
 20
-339.5099355204
 10
709.735771387
 20
-341.5629344016
 10
708.8842835328
 20
-343.6093998363
 10
707.8278251744
 20
-345.596329445
 10
706.5937580283
 20
-347.4722627942
 10
705.2140437854
 20
-349.1886141958
 10
703.7244163197
 20
-350.7009310498
 10
702.1634562003
 20
-351.9700451443
 10
700.5715914742
 20
-352.9630870908
 10
698.9900506017
 20
-353.6543376245
 10
697.4597946606
 20
-354.0258937197
 10
696.0204564761
 20
-354.0681322686
 10
694.709314151
 20
-353.7799593151
 10
693.5603255829
 20
-353.1688383873
 10
692.6032489721
 20
-352.2505971961
 10
691.8628721001
 20
-351.0490177062
 10
691.3583703391
 20
-349.5952201951
 10
691.1028100195
 20
-347.9268572548
 10
691.1028100195
 20
-346.087138609
 10
691.3583703391
 20
-344.1237120043
 10
691.8628721001
 20
-342.0874291585
 10
692.6032489721
 20
-340.0310287276
 10
693.5603255829
 20
-338.0077704026
 10
694.709314151
 20
-336.0700555113
 10
696.0204564761
 20
-334.2680698517
 10
697.4597946606
 20
-332.6484839057
 10
698.9900506017
 20
-331.2532440986
 10
700.5715914742
 20
-330.1184864086
 10
702.1634562003
 20
-329.2736004637
 10
703.7244163197
 20
-328.7404683662
 10
705.2140437854
 20
-328.5328979572
 10
706.5937580283
 20
-328.6562652015
 10
707.8278251744
 20
-329.1073749521
 10
708.8842835328
 20
-329.8745437034
 10
709.735771387
 20
-330.9379021879
 10
710.3602356487
 20
-332.2699099792
 10
710.7415030216
 20
-333.8360687753
 10
710.869698881
 20
-335.595815886
  0
LWPOLYLINE
  5
194
330
1F
100
AcDbEntity
  8
0
  6
Continuous
 62
     7
370
    25
100
AcDbPolyline
 90
       40
 70
   128
 43
0.0
 10
710.869698881
 20
-190.6598217763
 10
710.7415030216
 20
-192.5675806758
 10
710.3602356487
 20
-194.5739414107
 10
709.735771387
 20
-196.6269402918
 10
708.8842835328
 20
-198.6734057266
 10
707.8278251745
 20
-200.6603353352
 10
706.5937580283
 20
-202.5362686845
 10
705.2140437854
 20
-204.252620086
 10
703.7244163197
 20
-205.7649369401
 10
702.1634562003
 20
-207.0340510346
 10
700.5715914742
 20
-208.0270929811
 10
698.9900506017
 20
-208.7183435148
 10
697.4597946606
 20
-209.0898996099
 10
696.0204564761
 20
-209.1321381589
 10
694.709314151
 20
-208.8439652054
 10
693.5603255829
 20
-208.2328442775
 10
692.6032489721
 20
-207.3146030864
 10
691.8628721001
 20
-206.1130235965
 10
691.3583703391
 20
-204.6592260854
 10
691.1028100195
 20
-202.9908631451
 10
691.1028100195
 20
-201.1511444993
 10
691.3583703391
 20
-199.1877178946
 10
691.8628721001
 20
-197.1514350488
 10
692.6032489721
 20
-195.0950346178
 10
693.5603255829
 20
-193.0717762928
 10
694.709314151
 20
-191.1340614016
 10
696.0204564761
 20
-189.3320757419
 10
697.4597946606
 20
-187.7124897959
 10
698.9900506017
 20
-186.3172499889
 10
700.5715914742
 20
-185.1824922989
 10
702.1634562003
 20
-184.337606354
 10
703.7244163197
 20
-183.8044742564
 10
705.2140437854
 20
-183.5969038475
 10
706.5937580283
 20
-183.7202710918
 10
707.8278251745
 20
-184.1713808424
 10
708.8842835328
 20
-184.9385495937
 10
709.735771387
 20
-186.0019080781
 10
710.3602356487
 20
-187.3339158695
 10
710.7415030216
 20
-188.9000746656
 10
710.869698881
 20
-190.6598217763
  0
LWPOLYLINE
  5
195
330
1F
100
AcDbEntity
  8
0
  6
Continuous
 62
     7
370
    25
100
AcDbPolyline
 90
       40
 70
   128
 43
0.0
 10
664.9293183753
 20
-415.1668888074
 10
664.8011225159
 20
-417.0746477069
 10
664.419855143
 20
-419.0810084418
 10
663.7953908813
 20
-421.1340073229
 10
662.9439030271
 20
-423.1804727577
 10
661.8874446687
 20
-425.1674023663
 10
660.6533775226
 20
-427.0433357156
 10
659.2736632797
 20
-428.7596871171
 10
657.784035814
 20
-430.2720039712
 10
656.2230756946
 20
-431.5411180657
 10
654.6312109685
 20
-432.5341600122
 10
653.049670096
 20
-433.2254105459
 10
651.5194141549
 20
-433.5969666411
 10
650.0800759704
 20
-433.63920519
 10
648.7689336453
 20
-433.3510322365
 10
647.6199450772
 20
-432.7399113087
 10
646.6628684664
 20
-431.8216701175
 10
645.9224915944
 20
-430.6200906276
 10
645.4179898334
 20
-429.1662931165
 10
645.1624295138
 20
-427.4979301762
 10
645.1624295138
 20
-425.6582115304
 10
645.4179898334
 20
-423.6947849257
 10
645.9224915944
 20
-421.6585020799
 10
646.6628684664
 20
-419.602101649
 10
647.6199450772
 20
-417.5788433239
 10
648.7689336453
 20
-415.6411284327
 10
650.0800759704
 20
-413.839142773
 10
651.5194141549
 20
-412.2195568271
 10
653.049670096
 20
-410.82431702
 10
654.6312109685
 20
-409.68955933
 10
656.2230756946
 20
-408.8446733851
 10
657.784035814
 20
-408.3115412876
 10
659.2736632797
 20
-408.1039708786
 10
660.6533775226
 20
-408.2273381229
 10
661.8874446687
 20
-408.6784478735
 10
662.9439030271
 20
-409.4456166248
 10
663.7953908813
 20
-410.5089751093
 10
664.419855143
 20
-411.8409829006
 10
664.8011225159
 20
-413.4071416967
 10
664.9293183753
 20
-415.1668888074
  0
LWPOLYLINE
  5
196
330
1F
100
AcDbEntity
  8
0
  6
Continuous
 62
     7
370
    25
100
AcDbPolyline
 90
       40
 70
   128
 43
0.0
 10
539.4178647147
 20
-487.6231087316
 10
539.2896688553
 20
-489.5308676311
 10
538.9084014823
 20
-491.537228366
 10
538.2839372206
 20
-493.5902272472
 10
537.4324493665
 20
-495.636692682
 10
536.3759910081
 20
-497.6236222906
 10
535.141923862
 20
-499.4995556399
 10
533.7622096191
 20
-501.2159070414
 10
532.2725821534
 20
-502.7282238955
 10
530.711622034
 20
-503.99733799
 10
529.1197573079
 20
-504.9903799365
 10
527.5382164354
 20
-505.6816304702
 10
526.0079604943
 20
-506.0531865653
 10
524.5686223098
 20
-506.0954251143
 10
523.2574799847
 20
-505.8072521608
 10
522.1084914166
 20
-505.1961312329
 10
521.1514148058
 20
-504.2778900418
 10
520.4110379338
 20
-503.0763105519
 10
519.9065361727
 20
-501.6225130408
 10
519.6509758532
 20
-499.9541501005
 10
519.6509758532
 20
-498.1144314547
 10
519.9065361727
 20
-496.15100485
 10
520.4110379338
 20
-494.1147220041
 10
521.1514148058
 20
-492.0583215732
 10
522.1084914166
 20
-490.0350632482
 10
523.2574799847
 20
-488.0973483569
 10
524.5686223098
 20
-486.2953626973
 10
526.0079604943
 20
-484.6757767513
 10
527.5382164354
 20
-483.2805369443
 10
529.1197573079
 20
-482.1457792542
 10
530.711622034
 20
-481.3008933094
 10
532.2725821534
 20
-480.7677612118
 10
533.7622096191
 20
-480.5601908029
 10
535.141923862
 20
-480.6835580471
 10
536.3759910081
 20
-481.1346677977
 10
537.4324493665
 20
-481.9018365491
 10
538.2839372206
 20
-482.9651950335
 10
538.9084014823
 20
-484.2972028249
 10
539.2896688553
 20
-485.8633616209
 10
539.4178647147
 20
-487.6231087316
  0
LWPOLYLINE
  5
197
330
1F
100
AcDbEntity
  8
0
  6
Continuous
 62
     7
370
    25
100
AcDbPolyline
 90
       40
 70
   128
 43
0.0
 10
476.6621378844
 20
-398.332965872
 10
476.5339420249
 20
-400.2407247715
 10
476.152674652
 20
-402.2470855064
 10
475.5282103903
 20
-404.3000843876
 10
474.6767225362
 20
-406.3465498223
 10
473.6202641778
 20
-408.333479431
 10
472.3861970317
 20
-410.2094127802
 10
471.0064827888
 20
-411.9257641818
 10
469.5168553231
 20
-413.4380810358
 10
467.9558952036
 20
-414.7071951303
 10
466.3640304776
 20
-415.7002370768
 10
464.7824896051
 20
-416.3914876105
 10
463.252233664
 20
-416.7630437057
 10
461.8128954795
 20
-416.8052822546
 10
460.5017531544
 20
-416.5171093011
 10
459.3527645863
 20
-415.9059883733
 10
458.3956879755
 20
-414.9877471821
 10
457.6553111035
 20
-413.7861676922
 10
457.1508093424
 20
-412.3323701811
 10
456.8952490229
 20
-410.6640072408
 10
456.8952490229
 20
-408.824288595
 10
457.1508093424
 20
-406.8608619903
 10
457.6553111035
 20
-404.8245791445
 10
458.3956879755
 20
-402.7681787136
 10
459.3527645863
 20
-400.7449203886
 10
460.5017531544
 20
-398.8072054973
 10
461.8128954795
 20
-397.0052198377
 10
463.252233664
 20
-395.3856338917
 10
464.7824896051
 20
-393.9903940846
 10
466.3640304776
 20
-392.8556363946
 10
467.9558952036
 20
-392.0107504497
 10
469.5168553231
 20
-391.4776183522
 10
471.0064827888
 20
-391.2700479432
 10
472.3861970317
 20
-391.3934151875
 10
473.6202641778
 20
-391.8445249381
 10
474.6767225362
 20
-392.6116936894
 10
475.5282103903
 20
-393.6750521739
 10
476.152674652
 20
-395.0070599652
 10
476.5339420249
 20
-396.5732187613
 10
476.6621378844
 20
-398.332965872
  0
LWPOLYLINE
  5
198
330
1F
100
AcDbEntity
  8
0
  6
Continuous
 62
     7
370
    25
100
AcDbPolyline
 90
       40
 70
   128
 43
0.0
 10
539.4178647147
 20
-236.5866030881
 10
539.2896688553
 20
-238.4943619876
 10
538.9084014823
 20
-240.5007227225
 10
538.2839372206
 20
-242.5537216036
 10
537.4324493665
 20
-244.6001870384
 10
536.3759910081
 20
-246.587116647
 10
535.141923862
 20
-248.4630499963
 10
533.7622096191
 20
-250.1794013978
 10
532.2725821534
 20
-251.6917182519
 10
530.711622034
 20
-252.9608323464
 10
529.1197573079
 20
-253.9538742929
 10
527.5382164354
 20
-254.6451248266
 10
526.0079604943
 20
-255.0166809218
 10
524.5686223098
 20
-255.0589194707
 10
523.2574799847
 20
-254.7707465172
 10
522.1084914166
 20
-254.1596255894
 10
521.1514148058
 20
-253.2413843982
 10
520.4110379338
 20
-252.0398049083
 10
519.9065361727
 20
-250.5860073972
 10
519.6509758532
 20
-248.9176444569
 10
519.6509758532
 20
-247.0779258111
 10
519.9065361727
 20
-245.1144992064
 10
520.4110379338
 20
-243.0782163606
 10
521.1514148058
 20
-241.0218159297
 10
522.1084914166
 20
-238.9985576046
 10
523.2574799847
 20
-237.0608427134
 10
524.5686223098
 20
-235.2588570537
 10
526.0079604943
 20
-233.6392711078
 10
527.5382164354
 20
-232.2440313007
 10
529.1197573079
 20
-231.1092736107
 10
530.711622034
 20
-230.2643876658
 10
532.2725821534
 20
-229.7312555683
 10
533.7622096191
 20
-229.5236851593
 10
535.141923862
 20
-229.6470524036
 10
536.3759910081
 20
-230.0981621542
 10
537.4324493665
 20
-230.8653309055
 10
538.2839372206
 20
-231.92868939
 10
538.9084014823
 20
-233.2606971813
 10
539.2896688553
 20
-234.8268559774
 10
539.4178647147
 20
-236.5866030881
  0
ARC
  5
199
330
1F
100
AcDbEntity
  8
0
  6
Continuous
 62
     7
370
    25
100
AcDbCircle
 10
640.1780120923
 20
-250.2400587604
 30
0.0
 40
49.56914817540059
100
AcDbArc
 50
37.8863519018
 51
82.3535158167
  0
ARC
  5
19A
330
1F
100
AcDbEntity
  8
0
  6
Continuous
 62
     7
370
    25
100
AcDbCircle
 10
545.8256726565
 20
-413.7049045864
 30
0.0
 40
49.63405959806651
100
AcDbArc
 50
218.1486114295
 51
263.1810995383
  0
ARC
  5
19B
330
1F
100
AcDbEntity
  8
0
  6
Continuous
 62
     7
370
    25
100
AcDbCircle
 10
569.778408404
 20
-423.4417409473
 30
0.0
 40
53.33976639896221
100
AcDbArc
 50
217.5569299009
 51
225.480309094
  0
ARC
  5
19C
330
1F
100
AcDbEntity
  8
0
  6
Continuous
 62
     7
370
    25
100
AcDbCircle
 10
660.6660344395
 20
-265.7309038471
 30
0.0
 40
52.88155958056002
100
AcDbArc
 50
74.5015804974
 51
81.3341034769
  0
LINE
  5
19D
330
1F
100
AcDbEntity
  8
0
  6
Continuous
 62
     7
370
    25
100
AcDbLine
 10
708.4228690031
 20
-330.6134919946
 30
0.0
 11
708.1767824877
 21
-330.4602415137
 31
0.0
  0
LINE
  5
19E
330
1F
100
AcDbEntity
  8
0
  6
Continuous
 62
     7
370
    25
100
AcDbLine
 10
662.4824884974
 20
-410.184564916
 30
0.0
 11
662.236401982
 21
-410.0313144351
 31
0.0
  0
LINE
  5
19F
330
1F
100
AcDbEntity
  8
0
  6
Continuous
 62
     7
370
    25
100
AcDbLine
 10
725.2382153277
 20
-248.4382021321
 30
0.0
 11
724.9921288123
 21
-248.2849516512
 31
0.0
  0
LINE
  5
1A0
330
1F
100
AcDbEntity
  8
0
  6
Continuous
 62
     7
370
    25
100
AcDbLine
 10
599.7267616671
 20
-465.8304161661
 30
0.0
 11
599.4806751517
 21
-465.6771656852
 31
0.0
  0
LINE
  5
1A1
330
1F
100
AcDbEntity
  8
0
  6
Continuous
 62
     7
370
    25
100
AcDbLine
 10
708.4228690031
 20
-185.6774978849
 30
0.0
 11
708.1767824877
 21
-185.524247404
 31
0.0
  0
LINE
  5
1A2
330
1F
100
AcDbEntity
  8
0
  6
Continuous
 62
     7
370
    25
100
AcDbLine
 10
536.9710348367
 20
-482.6407848403
 30
0.0
 11
536.7249483214
 21
-482.4875343594
 31
0.0
  0
LINE
  5
1A3
330
1F
100
AcDbEntity
  8
0
  6
Continuous
 62
     7
370
    25
100
AcDbLine
 10
662.4824884974
 20
-159.1480592724
 30
0.0
 11
662.236401982
 21
-158.9948087915
 31
0.0
  0
LINE
  5
1A4
330
1F
100
AcDbEntity
  8
0
  6
Continuous
 62
     7
370
    25
100
AcDbLine
 10
491.0306543311
 20
-456.1113462278
 30
0.0
 11
490.7845678157
 21
-455.9580957469
 31
0.0
  0
LINE
  5
1A5
330
1F
100
AcDbEntity
  8
0
  6
Continuous
 62
     7
370
    25
100
AcDbLine
 10
599.7267616671
 20
-175.9584279466
 30
0.0
 11
599.4806751517
 21
-175.8051774657
 31
0.0
  0
LINE
  5
1A6
330
1F
100
AcDbEntity
  8
0
  6
Continuous
 62
     7
370
    25
100
AcDbLine
 10
474.2153080064
 20
-393.3506419806
 30
0.0
 11
473.9692214911
 21
-393.1973914997
 31
0.0
  0
LINE
  5
1A7
330
1F
100
AcDbEntity
  8
0
  6
Continuous
 62
     7
370
    25
100
AcDbLine
 10
536.9710348368
 20
-231.6042791967
 30
0.0
 11
536.7249483214
 21
-231.4510287158
 31
0.0
  0
LINE
  5
1A8
330
1F
100
AcDbEntity
  8
0
  6
Continuous
 62
     7
370
    25
100
AcDbLine
 10
491.0306543311
 20
-311.1753521181
 30
0.0
 11
490.7845678157
 21
-311.0221016372
 31
0.0
  0
LWPOLYLINE
  5
1A9
330
1F
100
AcDbEntity
  8
0
  6
Continuous
 62
     1
370
    25
100
AcDbPolyline
 90
       53
 70
   128
 43
0.0
 10
741.1200740482
 20
-246.481057073
 10
740.9951762239
 20
-253.5762498623
 10
740.6206933572
 20
-260.80368251
 10
739.9972569108
 20
-268.1511679294
 10
739.1259181396
 20
-275.606316598
 10
738.008146318
 20
-283.1565574487
 10
736.645826262
 20
-290.7891590672
 10
735.0412551514
 20
-298.4912511606
 10
733.1971386563
 20
-306.2498462592
 10
731.116586374
 20
-314.0518616166
 10
728.8031065866
 20
-321.8841412697
 10
726.2606003442
 20
-329.7334782233
 10
723.4933548875
 20
-337.5866367196
 10
720.5060364185
 20
-345.4303745567
 10
717.3036822318
 20
-353.2514654183
 10
713.8916922211
 20
-361.0367211758
 10
710.2758197733
 20
-368.7730141267
 10
706.4621620675
 20
-376.4472991311
 10
702.4571497933
 20
-384.0466356084
 10
698.2675363073
 20
-391.558209358
 10
693.9003862458
 20
-398.9693541673
 10
689.3630636117
 20
-406.2675731697
 10
684.6632193573
 20
-413.4405599167
 10
679.8087784833
 20
-420.4762191302
 10
674.8079266753
 20
-427.362687097
 10
669.6690965007
 20
-434.0883516742
 10
664.4009531896
 20
-440.6418718698
 10
659.0123800235
 20
-447.0121969663
 10
653.5124633558
 20
-453.1885851544
 10
647.9104772902
 20
-459.1606216464
 10
642.2158680425
 20
-464.9182362377
 10
636.4382380121
 20
-470.4517202877
 10
630.5873295903
 20
-475.7517430903
 10
624.6730087323
 20
-480.8093676083
 10
618.7052483211
 20
-485.6160655424
 10
612.6941113507
 20
-490.1637317125
 10
606.649733958
 20
-494.4446977248
 10
600.5823083306
 20
-498.4517449021
 10
594.5020655207
 20
-502.1781164563
 10
588.4192581932
 20
-505.617528882
 10
582.3441433373
 20
-508.7641825517
 10
576.2869649711
 20
-511.6127714956
 10
570.2579368674
 20
-514.1584923483
 10
564.2672253317
 20
-516.3970524485
 10
558.3249320587
 20
-518.3246770774
 10
552.4410770993
 20
-519.9381158239
 10
546.6255819639
 20
-521.2346480652
 10
540.888252893
 20
-522.2120875547
 10
535.2387643213
 20
-522.8687861082
 10
529.6866425647
 20
-523.2036363835
 10
524.2412497563
 20
-523.2160737472
 10
518.9117680603
 20
-522.9060772271
 10
518.8895345062
 20
-522.9040862457
  0
LWPOLYLINE
  5
1AA
330
1F
100
AcDbEntity
  8
0
  6
Continuous
 62
     1
370
    25
100
AcDbPolyline
 90
       14
 70
   128
 43
0.0
 10
720.8522431325
 20
-171.8122324804
 10
723.4933548875
 20
-175.726854178
 10
726.2606003442
 20
-180.3850190773
 10
728.8031065866
 20
-185.2988408077
 10
731.116586374
 20
-190.4600335539
 10
733.1971386563
 20
-195.8598943775
 10
735.0412551514
 20
-201.4893178915
 10
736.645826262
 20
-207.3388116143
 10
738.008146318
 20
-213.3985119764
 10
739.1259181396
 20
-219.6582009519
 10
739.9972569108
 20
-226.1073232892
 10
740.6206933572
 20
-232.7350043091
 10
740.9951762239
 20
-239.530068242
 10
741.1200740482
 20
-246.481057073
  0
LWPOLYLINE
  5
1AB
330
1F
100
AcDbEntity
  8
0
  6
Continuous
 62
     1
370
    25
100
AcDbPolyline
 90
       14
 70
   128
 43
0.0
 10
762.3332774838
 20
-258.7271787503
 10
762.2083796595
 20
-251.7761899193
 10
761.8338967928
 20
-244.9811259864
 10
761.2104603464
 20
-238.3534449665
 10
760.3391215752
 20
-231.9043226292
 10
759.2213497536
 20
-225.6446336537
 10
757.8590296976
 20
-219.5849332917
 10
756.254458587
 20
-213.7354395688
 10
754.4103420919
 20
-208.1060160548
 10
752.3297898096
 20
-202.7061552312
 10
750.0163100222
 20
-197.544962485
 10
747.4738037798
 20
-192.6311407547
 10
744.7065583231
 20
-187.9729758553
 10
741.9598063879
 20
-183.9111174085
  0
LWPOLYLINE
  5
1AC
330
1F
100
AcDbEntity
  8
0
  6
Continuous
 62
     1
370
    25
100
AcDbPolyline
 90
       52
 70
   128
 43
0.0
 10
540.6157114038
 20
-535.1946365019
 10
545.4544531919
 20
-535.4621954245
 10
550.8998460003
 20
-535.4497580608
 10
556.4519677569
 20
-535.1149077855
 10
562.1014563286
 20
-534.458209232
 10
567.8387853995
 20
-533.4807697425
 10
573.6542805349
 20
-532.1842375012
 10
579.5381354943
 20
-530.5707987547
 10
585.4804287673
 20
-528.6431741258
 10
591.471140303
 20
-526.4046140257
 10
597.5001684067
 20
-523.858893173
 10
603.5573467729
 20
-521.0103042291
 10
609.6324616288
 20
-517.8636505593
 10
615.7152689563
 20
-514.4242381336
 10
621.7955117662
 20
-510.6978665794
 10
627.8629373936
 20
-506.6908194022
 10
633.9073147863
 20
-502.4098533899
 10
639.9184517567
 20
-497.8621872197
 10
645.8862121679
 20
-493.0554892856
 10
651.8005330259
 20
-487.9978647677
 10
657.6514414477
 20
-482.697841965
 10
663.4290714781
 20
-477.1643579151
 10
669.1236807258
 20
-471.4067433238
 10
674.7256667914
 20
-465.4347068318
 10
680.2255834591
 20
-459.2583186437
 10
685.6141566252
 20
-452.8879935472
 10
690.8822999363
 20
-446.3344733515
 10
696.0211301109
 20
-439.6088087743
 10
701.0219819189
 20
-432.7223408075
 10
705.8764227929
 20
-425.6866815941
 10
710.5762670473
 20
-418.513694847
 10
715.1135896814
 20
-411.2154758447
 10
719.4807397429
 20
-403.8043310353
 10
723.6703532289
 20
-396.2927572857
 10
727.6753655031
 20
-388.6934208085
 10
731.4890232089
 20
-381.0191358041
 10
735.1048956567
 20
-373.2828428531
 10
738.5168856674
 20
-365.4975870956
 10
741.7192398541
 20
-357.6764962341
 10
744.7065583231
 20
-349.832758397
 10
747.4738037798
 20
-341.9795999007
 10
750.0163100222
 20
-334.1302629471
 10
752.3297898096
 20
-326.2979832939
 10
754.4103420919
 20
-318.4959679366
 10
756.254458587
 20
-310.7373728379
 10
757.8590296976
 20
-303.0352807445
 10
759.2213497536
 20
-295.402679126
 10
760.3391215752
 20
-287.8524382754
 10
761.2104603464
 20
-280.3972896067
 10
761.8338967928
 20
-273.0498041873
 10
762.2083796595
 20
-265.8223715397
 10
762.3332774838
 20
-258.7271787503
  0
LWPOLYLINE
  5
1AD
330
1F
100
AcDbEntity
  8
0
  6
Continuous
 62
     1
370
    25
100
AcDbPolyline
 90
       56
 70
   128
 43
0.0
 10
646.7737088157
 20
-201.1116837052
 10
644.6182675079
 20
-200.8496974531
 10
640.215084249
 20
-200.5667449551
 10
635.6963117685
 20
-200.6054311839
 10
631.0730082601
 20
-200.9656614677
 10
626.356487722
 20
-201.6465542627
 10
621.5582922704
 20
-202.6464433101
 10
616.6901638936
 20
-203.9628817138
 10
611.7640157175
 20
-205.5926479286
 10
606.7919028521
 20
-207.5317536433
 10
601.785992891
 20
-209.7754535413
 10
596.7585361344
 20
-212.3182569131
 10
591.7218356117
 20
-215.1539410926
 10
586.6882169729
 20
-218.2755666855
 10
581.6699983265
 20
-221.6754945508
 10
576.6794600943
 20
-225.3454044954
 10
571.7288149596
 20
-229.2763156347
 10
566.8301779807
 20
-233.4586083703
 10
561.9955369431
 20
-237.8820479312
 10
557.2367230237
 20
-242.5358094194
 10
552.5653818374
 20
-247.4085043008
 10
547.9929449391
 20
-252.4882082744
 10
543.5306018479
 20
-257.7624904535
 10
539.1892726652
 20
-263.2184437857
 10
534.9795813509
 20
-268.842716639
 10
530.9118297253
 20
-274.6215454752
 10
526.995972258
 20
-280.5407885318
 10
523.2415917086
 20
-286.5859604291
 10
519.6578756753
 20
-292.7422676185
 10
516.2535941118
 20
-298.9946445847
 10
513.0370778656
 20
-305.3277907135
 10
510.0161982909
 20
-311.7262077352
 10
507.1983479862
 20
-318.174237651
 10
504.5904227035
 20
-324.6561010512
 10
502.1988044729
 20
-331.1559357299
 10
500.0293459849
 20
-337.6578355026
 10
498.0873562682
 20
-344.1458891308
 10
496.3775876968
 20
-350.6042192603
 10
494.9042243611
 20
-357.0170212748
 10
493.6708718279
 20
-363.3686019733
 10
492.6805483176
 20
-369.6434179735
 10
491.9356773179
 20
-375.8261137491
 10
491.4380816527
 20
-381.9015592075
 10
491.1889790222
 20
-387.8548867156
 10
491.1889790222
 20
-393.6715274834
 10
491.4380816527
 20
-399.3372472163
 10
491.9356773179
 20
-404.8381809486
 10
492.6805483176
 20
-410.1608669737
 10
493.6708718279
 20
-415.2922797869
 10
494.9042243611
 20
-420.2198619613
 10
496.3775876968
 20
-424.9315548775
 10
498.0873562682
 20
-429.4158282334
 10
500.0293459849
 20
-433.6617082607
 10
502.1988044729
 20
-437.6588045794
 10
504.5904227035
 20
-441.3973356251
 10
506.7928909294
 20
-444.3640275814
  0
LWPOLYLINE
  5
1AE
330
1F
100
AcDbEntity
  8
0
  6
Continuous
 62
     1
370
    25
100
AcDbPolyline
 90
       56
 70
   128
 43
0.0
 10
527.4934112833
 20
-455.9549643802
 10
525.8036261391
 20
-453.6434573024
 10
523.4120079085
 20
-449.9049262567
 10
521.2425494205
 20
-445.907829938
 10
519.3005597038
 20
-441.6619499107
 10
517.5907911324
 20
-437.1776765548
 10
516.1174277966
 20
-432.4659836386
 10
514.8840752635
 20
-427.5384014643
 10
513.8937517532
 20
-422.406988651
 10
513.1488807535
 20
-417.0843026259
 10
512.6512850883
 20
-411.5833688936
 10
512.4021824578
 20
-405.9176491608
 10
512.4021824578
 20
-400.1010083929
 10
512.6512850883
 20
-394.1476808848
 10
513.1488807535
 20
-388.0722354264
 10
513.8937517532
 20
-381.8895396508
 10
514.8840752635
 20
-375.6147236506
 10
516.1174277966
 20
-369.2631429521
 10
517.5907911324
 20
-362.8503409376
 10
519.3005597038
 20
-356.3920108082
 10
521.2425494205
 20
-349.9039571799
 10
523.4120079085
 20
-343.4020574073
 10
525.8036261391
 20
-336.9022227285
 10
528.4115514218
 20
-330.4203593283
 10
531.2294017265
 20
-323.9723294125
 10
534.2502813012
 20
-317.5739123909
 10
537.4667975474
 20
-311.240766262
 10
540.8710791109
 20
-304.9883892958
 10
544.4547951441
 20
-298.8320821064
 10
548.2091756936
 20
-292.7869102091
 10
552.1250331609
 20
-286.8676671525
 10
556.1927847865
 20
-281.0888383163
 10
560.4024761008
 20
-275.4645654631
 10
564.7438052835
 20
-270.0086121309
 10
569.2061483747
 20
-264.7343299518
 10
573.778585273
 20
-259.6546259781
 10
578.4499264593
 20
-254.7819310967
 10
583.2087403787
 20
-250.1281696085
 10
588.0433814163
 20
-245.7047300477
 10
592.9420183952
 20
-241.522437312
 10
597.8926635299
 20
-237.5915261728
 10
602.8832017621
 20
-233.9216162282
 10
607.9014204085
 20
-230.5216883628
 10
612.9350390473
 20
-227.4000627699
 10
617.97173957
 20
-224.5643785904
 10
622.9991963266
 20
-222.0215752187
 10
628.0051062877
 20
-219.7778753206
 10
632.9772191531
 20
-217.8387696059
 10
637.9033673292
 20
-216.2090033912
 10
642.771495706
 20
-214.8925649874
 10
647.5696911576
 20
-213.89267594
 10
652.2862116957
 20
-213.211783145
 10
656.9095152041
 20
-212.8515528612
 10
661.4282876846
 20
-212.8128666324
 10
665.8314709435
 20
-213.0958191304
 10
668.6338272156
 20
-213.4530536431
  0
LWPOLYLINE
  5
1AF
330
1F
100
AcDbEntity
  8
0
  6
Continuous
 62
     1
370
    25
100
AcDbPolyline
 90
       21
 70
   128
 43
0.0
 10
708.1767824877
 20
-330.4602415137
 10
707.9031458225
 20
-330.3150468343
 10
706.705070496
 20
-329.929865044
 10
705.3698509893
 20
-329.8662567606
 10
703.9339086099
 20
-330.1259570524
 10
702.4364121228
 20
-330.7018819724
 10
700.9182093284
 20
-331.5783217901
 10
699.4207128413
 20
-332.7313695119
 10
697.9847704619
 20
-334.1295730018
 10
696.6495509552
 20
-335.7347929134
 10
695.4514756287
 20
-337.5032430321
 10
694.4232248541
 20
-339.3866846485
 10
693.592846632
 20
-341.3337423853
 10
692.9829915158
 20
-343.2913055828
 10
692.6102947632
 20
-345.2059770201
 10
692.4849225702
 20
-347.0255294515
 10
692.6102947632
 20
-348.70033023
 10
692.9829915158
 20
-350.1846951561
 10
693.592846632
 20
-351.4381346241
 10
694.4232248541
 20
-352.4264580729
 10
695.2292617052
 20
-353.0067316631
  0
LWPOLYLINE
  5
1B0
330
1F
100
AcDbEntity
  8
0
  6
Continuous
 62
     1
370
    25
100
AcDbPolyline
 90
       21
 70
   128
 43
0.0
 10
662.236401982
 20
-410.0313144351
 10
661.9627653168
 20
-409.8861197557
 10
660.7646899902
 20
-409.5009379653
 10
659.4294704836
 20
-409.437329682
 10
657.9935281042
 20
-409.6970299738
 10
656.4960316171
 20
-410.2729548938
 10
654.9778288227
 20
-411.1493947115
 10
653.4803323356
 20
-412.3024424333
 10
652.0443899562
 20
-413.7006459232
 10
650.7091704495
 20
-415.3058658348
 10
649.511095123
 20
-417.0743159535
 10
648.4828443484
 20
-418.9577575699
 10
647.6524661263
 20
-420.9048153067
 10
647.0426110101
 20
-422.8623785042
 10
646.6699142575
 20
-424.7770499415
 10
646.5445420645
 20
-426.5966023729
 10
646.6699142575
 20
-428.2714031514
 10
647.0426110101
 20
-429.7557680775
 10
647.6524661263
 20
-431.0092075455
 10
648.4828443484
 20
-431.9975309943
 10
649.2888811995
 20
-432.5778045845
  0
LWPOLYLINE
  5
1B1
330
1F
100
AcDbEntity
  8
0
  6
Continuous
 62
     1
370
    25
100
AcDbPolyline
 90
       21
 70
   128
 43
0.0
 10
724.9921288123
 20
-248.2849516512
 10
724.7184921471
 20
-248.1397569717
 10
723.5204168206
 20
-247.7545751814
 10
722.1851973139
 20
-247.6909668981
 10
720.7492549345
 20
-247.9506671899
 10
719.2517584474
 20
-248.5265921099
 10
717.733555653
 20
-249.4030319276
 10
716.2360591659
 20
-250.5560796494
 10
714.8001167865
 20
-251.9542831393
 10
713.4648972799
 20
-253.5595030509
 10
712.2668219533
 20
-255.3279531696
 10
711.2385711787
 20
-257.211394786
 10
710.4081929566
 20
-259.1584525227
 10
709.7983378404
 20
-261.1160157203
 10
709.4256410878
 20
-263.0306871576
 10
709.3002688948
 20
-264.850239589
 10
709.4256410878
 20
-266.5250403674
 10
709.7983378404
 20
-268.0094052936
 10
710.4081929566
 20
-269.2628447616
 10
711.2385711787
 20
-270.2511682104
 10
712.0446080299
 20
-270.8314418006
  0
LWPOLYLINE
  5
1B2
330
1F
100
AcDbEntity
  8
0
  6
Continuous
 62
     1
370
    25
100
AcDbPolyline
 90
       21
 70
   128
 43
0.0
 10
599.4806751517
 20
-465.6771656852
 10
599.2070384865
 20
-465.5319710057
 10
598.0089631599
 20
-465.1467892154
 10
596.6737436533
 20
-465.0831809321
 10
595.2378012739
 20
-465.3428812239
 10
593.7403047868
 20
-465.9188061439
 10
592.2221019924
 20
-466.7952459615
 10
590.7246055053
 20
-467.9482936834
 10
589.2886631259
 20
-469.3464971733
 10
587.9534436192
 20
-470.9517170849
 10
586.7553682927
 20
-472.7201672036
 10
585.727117518
 20
-474.60360882
 10
584.896739296
 20
-476.5506665567
 10
584.2868841798
 20
-478.5082297543
 10
583.9141874272
 20
-480.4229011916
 10
583.7888152342
 20
-482.242453623
 10
583.9141874272
 20
-483.9172544014
 10
584.2868841798
 20
-485.4016193275
 10
584.896739296
 20
-486.6550587956
 10
585.727117518
 20
-487.6433822444
 10
586.5331543692
 20
-488.2236558346
  0
LWPOLYLINE
  5
1B3
330
1F
100
AcDbEntity
  8
0
  6
Continuous
 62
     1
370
    25
100
AcDbPolyline
 90
       21
 70
   128
 43
0.0
 10
708.1767824877
 20
-185.524247404
 10
707.9031458225
 20
-185.3790527245
 10
706.705070496
 20
-184.9938709342
 10
705.3698509893
 20
-184.9302626509
 10
703.9339086099
 20
-185.1899629427
 10
702.4364121228
 20
-185.7658878627
 10
700.9182093284
 20
-186.6423276803
 10
699.4207128413
 20
-187.7953754022
 10
697.9847704619
 20
-189.1935788921
 10
696.6495509552
 20
-190.7987988037
 10
695.4514756287
 20
-192.5672489224
 10
694.4232248541
 20
-194.4506905388
 10
693.592846632
 20
-196.3977482755
 10
692.9829915158
 20
-198.3553114731
 10
692.6102947632
 20
-200.2699829104
 10
692.4849225702
 20
-202.0895353418
 10
692.6102947632
 20
-203.7643361202
 10
692.9829915158
 20
-205.2487010463
 10
693.592846632
 20
-206.5021405144
 10
694.4232248541
 20
-207.4904639632
 10
695.2292617053
 20
-208.0707375534
  0
LWPOLYLINE
  5
1B4
330
1F
100
AcDbEntity
  8
0
  6
Continuous
 62
     1
370
    25
100
AcDbPolyline
 90
       21
 70
   128
 43
0.0
 10
536.7249483214
 20
-482.4875343594
 10
536.4513116562
 20
-482.3423396799
 10
535.2532363296
 20
-481.9571578896
 10
533.9180168229
 20
-481.8935496063
 10
532.4820744436
 20
-482.1532498981
 10
530.9845779565
 20
-482.7291748181
 10
529.4663751621
 20
-483.6056146357
 10
527.968878675
 20
-484.7586623576
 10
526.5329362956
 20
-486.1568658475
 10
525.1977167889
 20
-487.7620857591
 10
523.9996414624
 20
-489.5305358777
 10
522.9713906877
 20
-491.4139774942
 10
522.1410124657
 20
-493.3610352309
 10
521.5311573495
 20
-495.3185984284
 10
521.1584605969
 20
-497.2332698657
 10
521.0330884038
 20
-499.0528222972
 10
521.1584605969
 20
-500.7276230756
 10
521.5311573495
 20
-502.2119880017
 10
522.1410124657
 20
-503.4654274698
 10
522.9713906877
 20
-504.4537509185
 10
523.7774275389
 20
-505.0340245088
  0
LWPOLYLINE
  5
1B5
330
1F
100
AcDbEntity
  8
0
  6
Continuous
 62
     1
370
    25
100
AcDbPolyline
 90
       21
 70
   128
 43
0.0
 10
662.236401982
 20
-158.9948087915
 10
661.9627653168
 20
-158.8496141121
 10
660.7646899903
 20
-158.4644323218
 10
659.4294704836
 20
-158.4008240384
 10
657.9935281042
 20
-158.6605243303
 10
656.4960316171
 20
-159.2364492502
 10
654.9778288227
 20
-160.1128890679
 10
653.4803323356
 20
-161.2659367897
 10
652.0443899562
 20
-162.6641402796
 10
650.7091704495
 20
-164.2693601913
 10
649.511095123
 20
-166.0378103099
 10
648.4828443484
 20
-167.9212519264
 10
647.6524661263
 20
-169.8683096631
 10
647.0426110101
 20
-171.8258728606
 10
646.6699142575
 20
-173.7405442979
 10
646.5445420645
 20
-175.5600967293
 10
646.6699142575
 20
-177.2348975078
 10
647.0426110101
 20
-178.7192624339
 10
647.6524661263
 20
-179.972701902
 10
648.4828443484
 20
-180.9610253507
 10
649.2888811996
 20
-181.541298941
  0
LWPOLYLINE
  5
1B6
330
1F
100
AcDbEntity
  8
0
  6
Continuous
 62
     1
370
    25
100
AcDbPolyline
 90
       21
 70
   128
 43
0.0
 10
490.7845678157
 20
-455.9580957469
 10
490.5109311505
 20
-455.8129010675
 10
489.3128558239
 20
-455.4277192772
 10
487.9776363172
 20
-455.3641109938
 10
486.5416939379
 20
-455.6238112856
 10
485.0441974508
 20
-456.1997362056
 10
483.5259946564
 20
-457.0761760233
 10
482.0284981693
 20
-458.2292237451
 10
480.5925557899
 20
-459.627427235
 10
479.2573362832
 20
-461.2326471466
 10
478.0592609567
 20
-463.0010972653
 10
477.031010182
 20
-464.8845388818
 10
476.20063196
 20
-466.8315966185
 10
475.5907768438
 20
-468.789159816
 10
475.2180800912
 20
-470.7038312533
 10
475.0927078982
 20
-472.5233836847
 10
475.2180800912
 20
-474.1981844632
 10
475.5907768438
 20
-475.6825493893
 10
476.20063196
 20
-476.9359888573
 10
477.031010182
 20
-477.9243123061
 10
477.8370470332
 20
-478.5045858963
  0
LWPOLYLINE
  5
1B7
330
1F
100
AcDbEntity
  8
0
  6
Continuous
 62
     1
370
    25
100
AcDbPolyline
 90
       21
 70
   128
 43
0.0
 10
599.4806751517
 20
-175.8051774657
 10
599.2070384865
 20
-175.6599827863
 10
598.00896316
 20
-175.274800996
 10
596.6737436533
 20
-175.2111927126
 10
595.2378012739
 20
-175.4708930044
 10
593.7403047868
 20
-176.0468179244
 10
592.2221019924
 20
-176.9232577421
 10
590.7246055053
 20
-178.0763054639
 10
589.2886631259
 20
-179.4745089538
 10
587.9534436192
 20
-181.0797288654
 10
586.7553682927
 20
-182.8481789841
 10
585.7271175181
 20
-184.7316206006
 10
584.896739296
 20
-186.6786783373
 10
584.2868841798
 20
-188.6362415348
 10
583.9141874272
 20
-190.5509129721
 10
583.7888152342
 20
-192.3704654035
 10
583.9141874272
 20
-194.045266182
 10
584.2868841798
 20
-195.5296311081
 10
584.896739296
 20
-196.7830705761
 10
585.7271175181
 20
-197.7713940249
 10
586.5331543692
 20
-198.3516676151
  0
LWPOLYLINE
  5
1B8
330
1F
100
AcDbEntity
  8
0
  6
Continuous
 62
     1
370
    25
100
AcDbPolyline
 90
       21
 70
   128
 43
0.0
 10
473.9692214911
 20
-393.1973914997
 10
473.6955848259
 20
-393.0521968203
 10
472.4975094993
 20
-392.6670150299
 10
471.1622899926
 20
-392.6034067466
 10
469.7263476133
 20
-392.8631070384
 10
468.2288511262
 20
-393.4390319584
 10
466.7106483318
 20
-394.3154717761
 10
465.2131518446
 20
-395.4685194979
 10
463.7772094653
 20
-396.8667229878
 10
462.4419899586
 20
-398.4719428994
 10
461.2439146321
 20
-400.2403930181
 10
460.2156638574
 20
-402.1238346345
 10
459.3852856354
 20
-404.0708923713
 10
458.7754305192
 20
-406.0284555688
 10
458.4027337666
 20
-407.9431270061
 10
458.2773615735
 20
-409.7626794375
 10
458.4027337666
 20
-411.437480216
 10
458.7754305192
 20
-412.9218451421
 10
459.3852856354
 20
-414.1752846101
 10
460.2156638574
 20
-415.1636080589
 10
461.0217007086
 20
-415.7438816491
  0
LWPOLYLINE
  5
1B9
330
1F
100
AcDbEntity
  8
0
  6
Continuous
 62
     1
370
    25
100
AcDbPolyline
 90
       21
 70
   128
 43
0.0
 10
536.7249483214
 20
-231.4510287158
 10
536.4513116562
 20
-231.3058340364
 10
535.2532363296
 20
-230.920652246
 10
533.918016823
 20
-230.8570439627
 10
532.4820744436
 20
-231.1167442545
 10
530.9845779565
 20
-231.6926691745
 10
529.4663751621
 20
-232.5691089922
 10
527.968878675
 20
-233.722156714
 10
526.5329362956
 20
-235.1203602039
 10
525.1977167889
 20
-236.7255801155
 10
523.9996414624
 20
-238.4940302342
 10
522.9713906877
 20
-240.3774718506
 10
522.1410124657
 20
-242.3245295874
 10
521.5311573495
 20
-244.2820927849
 10
521.1584605969
 20
-246.1967642222
 10
521.0330884039
 20
-248.0163166536
 10
521.1584605969
 20
-249.6911174321
 10
521.5311573495
 20
-251.1754823582
 10
522.1410124657
 20
-252.4289218262
 10
522.9713906877
 20
-253.417245275
 10
523.7774275389
 20
-253.9975188652
  0
LWPOLYLINE
  5
1BA
330
1F
100
AcDbEntity
  8
0
  6
Continuous
 62
     1
370
    25
100
AcDbPolyline
 90
       21
 70
   128
 43
0.0
 10
490.7845678157
 20
-311.0221016372
 10
490.5109311505
 20
-310.8769069577
 10
489.3128558239
 20
-310.4917251674
 10
487.9776363173
 20
-310.4281168841
 10
486.5416939379
 20
-310.6878171759
 10
485.0441974508
 20
-311.2637420959
 10
483.5259946564
 20
-312.1401819136
 10
482.0284981693
 20
-313.2932296354
 10
480.5925557899
 20
-314.6914331253
 10
479.2573362832
 20
-316.2966530369
 10
478.0592609567
 20
-318.0651031556
 10
477.031010182
 20
-319.948544772
 10
476.20063196
 20
-321.8956025087
 10
475.5907768438
 20
-323.8531657063
 10
475.2180800912
 20
-325.7678371436
 10
475.0927078982
 20
-327.587389575
 10
475.2180800912
 20
-329.2621903534
 10
475.5907768438
 20
-330.7465552796
 10
476.20063196
 20
-331.9999947476
 10
477.031010182
 20
-332.9883181964
 10
477.8370470332
 20
-333.5685917866
  0
ENDSEC
  0
SECTION
  2
OBJECTS
  0
DICTIONARY
  5
C
330
0
100
AcDbDictionary
281
     1
  3
ACAD_GROUP
350
D
  3
ACAD_LAYOUT
350
1A
  3
ACAD_MLINESTYLE
350
17
  3
ACAD_PLOTSETTINGS
350
19
  3
ACAD_PLOTSTYLENAME
350
E
  3
ACAD_SCALELIST
350
47
  3
DWGPROPS
350
1BB
  0
DICTIONARY
  5
D
102
{ACAD_REACTORS
330
C
102
}
330
C
100
AcDbDictionary
281
     1
  0
DICTIONARY
  5
1A
102
{ACAD_REACTORS
330
C
102
}
330
C
100
AcDbDictionary
281
     1
  3
Layout1
350
1E
  3
Layout2
350
26
  3
Model
350
22
  0
DICTIONARY
  5
17
102
{ACAD_REACTORS
330
C
102
}
330
C
100
AcDbDictionary
281
     1
  3
Standard
350
18
  0
DICTIONARY
  5
19
102
{ACAD_REACTORS
330
C
102
}
330
C
100
AcDbDictionary
281
     1
  0
ACDBDICTIONARYWDFLT
  5
E
102
{ACAD_REACTORS
330
C
102
}
330
C
100
AcDbDictionary
281
     1
  3
Normal
350
F
100
AcDbDictionaryWithDefault
340
F
  0
DICTIONARY
  5
47
102
{ACAD_REACTORS
330
C
102
}
330
C
100
AcDbDictionary
281
     1
  3
A0
350
48
  3
A1
350
49
  3
A2
350
4A
  3
A3
350
4B
  3
A4
350
4C
  3
A5
350
4D
  3
A6
350
4E
  3
A7
350
4F
  3
A8
350
50
  3
A9
350
51
  3
B0
350
52
  3
B1
350
53
  3
B2
350
54
  3
B3
350
55
  3
B4
350
56
  3
B5
350
57
  3
B6
350
58
  3
B7
350
59
  3
B8
350
5A
  3
B9
350
5B
  3
C0
350
5C
  3
C1
350
5D
  3
C2
350
5E
  3
C3
350
5F
  3
C4
350
60
  3
C5
350
61
  3
C6
350
62
  3
C7
350
63
  3
C8
350
64
  3
C9
350
65
  3
D0
350
66
  3
D1
350
67
  3
D2
350
68
  0
XRECORD
  5
1BB
102
{ACAD_REACTORS
330
C
102
}
330
C
100
AcDbXrecord
280
     1
  1
DWGPROPS COOKIE
  2

  3

  4

  6

  7

  8
b.kav
  9

300
=
301
=
302
=
303
=
304
=
305
=
306
=
307
=
308
=
309
=
 40
0.0
 41
2459741.467533819
 42
2459741.467536134
  1

 90
        0
  0
LAYOUT
  5
1E
102
{ACAD_REACTORS
330
1A
102
}
330
1A
100
AcDbPlotSettings
  1

  2
none_device
  4

  6

 40
0.0
 41
0.0
 42
0.0
 43
0.0
 44
0.0
 45
0.0
 46
0.0
 47
0.0
 48
0.0
 49
0.0
140
0.0
141
0.0
142
1.0
143
1.0
 70
   688
 72
     1
 73
     0
 74
     5
  7

 75
    16
147
1.0
148
0.0
149
0.0
100
AcDbLayout
  1
Layout1
 70
     1
 71
     1
 10
0.0
 20
0.0
 11
420.0
 21
297.0
 12
0.0
 22
0.0
 32
0.0
 14
1.0000000000E+20
 24
1.0000000000E+20
 34
1.0000000000E+20
 15
-1.0000000000E+20
 25
-1.0000000000E+20
 35
-1.0000000000E+20
146
0.0
 13
0.0
 23
0.0
 33
0.0
 16
1.0
 26
0.0
 36
0.0
 17
0.0
 27
1.0
 37
0.0
 76
     0
330
1B
  0
LAYOUT
  5
26
102
{ACAD_REACTORS
330
1A
102
}
330
1A
100
AcDbPlotSettings
  1

  2
none_device
  4

  6

 40
0.0
 41
0.0
 42
0.0
 43
0.0
 44
0.0
 45
0.0
 46
0.0
 47
0.0
 48
0.0
 49
0.0
140
0.0
141
0.0
142
1.0
143
1.0
 70
   688
 72
     1
 73
     0
 74
     5
  7

 75
    16
147
1.0
148
0.0
149
0.0
100
AcDbLayout
  1
Layout2
 70
     1
 71
     2
 10
0.0
 20
0.0
 11
0.0
 21
0.0
 12
0.0
 22
0.0
 32
0.0
 14
0.0
 24
0.0
 34
0.0
 15
0.0
 25
0.0
 35
0.0
146
0.0
 13
0.0
 23
0.0
 33
0.0
 16
1.0
 26
0.0
 36
0.0
 17
0.0
 27
1.0
 37
0.0
 76
     0
330
23
  0
LAYOUT
  5
22
102
{ACAD_REACTORS
330
1A
102
}
330
1A
100
AcDbPlotSettings
  1

  2
none_device
  4
Letter_(8.50_x_11.00_Inches)
  6

 40
6.35
 41
6.35
 42
6.35000508
 43
6.35000508
 44
215.9
 45
279.4
 46
0.0
 47
0.0
 48
0.0
 49
0.0
140
0.0
141
0.0
142
1.0
143
1.0
 70
  1712
 72
     1
 73
     0
 74
     0
  7

 75
     0
147
1.0
148
0.0
149
0.0
100
AcDbLayout
  1
Model
 70
     1
 71
     0
 10
0.0
 20
0.0
 11
279.4
 21
215.9
 12
0.0
 22
0.0
 32
0.0
 14
0.0
 24
0.0
 34
0.0
 15
279.4
 25
215.9
 35
0.0
146
0.0
 13
0.0
 23
0.0
 33
0.0
 16
1.0
 26
0.0
 36
0.0
 17
0.0
 27
1.0
 37
0.0
 76
     0
330
1F
331
29
  0
MLINESTYLE
  5
18
102
{ACAD_REACTORS
330
17
102
}
330
17
100
AcDbMlineStyle
  2
Standard
 70
     0
  3

 62
   256
 51
90.0
 52
90.0
 71
     2
 49
0.5
 62
   256
  6
BYLAYER
 49
-0.5
 62
   256
  6
BYLAYER
  0
ACDBPLACEHOLDER
  5
F
102
{ACAD_REACTORS
330
E
102
}
330
E
  0
SCALE
  5
48
102
{ACAD_REACTORS
330
47
102
}
330
47
100
AcDbScale
 70
     0
300
1:1
140
1.0
141
1.0
290
     1
  0
SCALE
  5
49
102
{ACAD_REACTORS
330
47
102
}
330
47
100
AcDbScale
 70
     0
300
1:2
140
1.0
141
2.0
290
     0
  0
SCALE
  5
4A
102
{ACAD_REACTORS
330
47
102
}
330
47
100
AcDbScale
 70
     0
300
1:4
140
1.0
141
4.0
290
     0
  0
SCALE
  5
4B
102
{ACAD_REACTORS
330
47
102
}
330
47
100
AcDbScale
 70
     0
300
1:5
140
1.0
141
5.0
290
     0
  0
SCALE
  5
4C
102
{ACAD_REACTORS
330
47
102
}
330
47
100
AcDbScale
 70
     0
300
1:8
140
1.0
141
8.0
290
     0
  0
SCALE
  5
4D
102
{ACAD_REACTORS
330
47
102
}
330
47
100
AcDbScale
 70
     0
300
1:10
140
1.0
141
10.0
290
     0
  0
SCALE
  5
4E
102
{ACAD_REACTORS
330
47
102
}
330
47
100
AcDbScale
 70
     0
300
1:16
140
1.0
141
16.0
290
     0
  0
SCALE
  5
4F
102
{ACAD_REACTORS
330
47
102
}
330
47
100
AcDbScale
 70
     0
300
1:20
140
1.0
141
20.0
290
     0
  0
SCALE
  5
50
102
{ACAD_REACTORS
330
47
102
}
330
47
100
AcDbScale
 70
     0
300
1:30
140
1.0
141
30.0
290
     0
  0
SCALE
  5
51
102
{ACAD_REACTORS
330
47
102
}
330
47
100
AcDbScale
 70
     0
300
1:40
140
1.0
141
40.0
290
     0
  0
SCALE
  5
52
102
{ACAD_REACTORS
330
47
102
}
330
47
100
AcDbScale
 70
     0
300
1:50
140
1.0
141
50.0
290
     0
  0
SCALE
  5
53
102
{ACAD_REACTORS
330
47
102
}
330
47
100
AcDbScale
 70
     0
300
1:100
140
1.0
141
100.0
290
     0
  0
SCALE
  5
54
102
{ACAD_REACTORS
330
47
102
}
330
47
100
AcDbScale
 70
     0
300
2:1
140
2.0
141
1.0
290
     0
  0
SCALE
  5
55
102
{ACAD_REACTORS
330
47
102
}
330
47
100
AcDbScale
 70
     0
300
4:1
140
4.0
141
1.0
290
     0
  0
SCALE
  5
56
102
{ACAD_REACTORS
330
47
102
}
330
47
100
AcDbScale
 70
     0
300
8:1
140
8.0
141
1.0
290
     0
  0
SCALE
  5
57
102
{ACAD_REACTORS
330
47
102
}
330
47
100
AcDbScale
 70
     0
300
10:1
140
10.0
141
1.0
290
     0
  0
SCALE
  5
58
102
{ACAD_REACTORS
330
47
102
}
330
47
100
AcDbScale
 70
     0
300
100:1
140
100.0
141
1.0
290
     0
  0
SCALE
  5
59
102
{ACAD_REACTORS
330
47
102
}
330
47
100
AcDbScale
 70
     0
300
1/128" = 1'-0"
140
0.0078125
141
12.0
290
     0
  0
SCALE
  5
5A
102
{ACAD_REACTORS
330
47
102
}
330
47
100
AcDbScale
 70
     0
300
1/64" = 1'-0"
140
0.015625
141
12.0
290
     0
  0
SCALE
  5
5B
102
{ACAD_REACTORS
330
47
102
}
330
47
100
AcDbScale
 70
     0
300
1/32" = 1'-0"
140
0.03125
141
12.0
290
     0
  0
SCALE
  5
5C
102
{ACAD_REACTORS
330
47
102
}
330
47
100
AcDbScale
 70
     0
300
1/16" = 1'-0"
140
0.0625
141
12.0
290
     0
  0
SCALE
  5
5D
102
{ACAD_REACTORS
330
47
102
}
330
47
100
AcDbScale
 70
     0
300
3/32" = 1'-0"
140
0.09375
141
12.0
290
     0
  0
SCALE
  5
5E
102
{ACAD_REACTORS
330
47
102
}
330
47
100
AcDbScale
 70
     0
300
1/8" = 1'-0"
140
0.125
141
12.0
290
     0
  0
SCALE
  5
5F
102
{ACAD_REACTORS
330
47
102
}
330
47
100
AcDbScale
 70
     0
300
3/16" = 1'-0"
140
0.1875
141
12.0
290
     0
  0
SCALE
  5
60
102
{ACAD_REACTORS
330
47
102
}
330
47
100
AcDbScale
 70
     0
300
1/4" = 1'-0"
140
0.25
141
12.0
290
     0
  0
SCALE
  5
61
102
{ACAD_REACTORS
330
47
102
}
330
47
100
AcDbScale
 70
     0
300
3/8" = 1'-0"
140
0.375
141
12.0
290
     0
  0
SCALE
  5
62
102
{ACAD_REACTORS
330
47
102
}
330
47
100
AcDbScale
 70
     0
300
1/2" = 1'-0"
140
0.5
141
12.0
290
     0
  0
SCALE
  5
63
102
{ACAD_REACTORS
330
47
102
}
330
47
100
AcDbScale
 70
     0
300
3/4" = 1'-0"
140
0.75
141
12.0
290
     0
  0
SCALE
  5
64
102
{ACAD_REACTORS
330
47
102
}
330
47
100
AcDbScale
 70
     0
300
1" = 1'-0"
140
1.0
141
12.0
290
     0
  0
SCALE
  5
65
102
{ACAD_REACTORS
330
47
102
}
330
47
100
AcDbScale
 70
     0
300
1-1/2" = 1'-0"
140
1.5
141
12.0
290
     0
  0
SCALE
  5
66
102
{ACAD_REACTORS
330
47
102
}
330
47
100
AcDbScale
 70
     0
300
3" = 1'-0"
140
3.0
141
12.0
290
     0
  0
SCALE
  5
67
102
{ACAD_REACTORS
330
47
102
}
330
47
100
AcDbScale
 70
     0
300
6" = 1'-0"
140
6.0
141
12.0
290
     0
  0
SCALE
  5
68
102
{ACAD_REACTORS
330
47
102
}
330
47
100
AcDbScale
 70
     0
300
1'-0" = 1'-0"
140
12.0
141
12.0
290
     0
  0
ENDSEC
  0
EOF
